Guitar Tabs, Chords and Lyrics


The Cold Part    Modest Mouse



Modest Mouse - The Cold Part
Submitted By: Ryan Davis
EMail: ikilledsuperman@bellsouth.net

Tuning: Standard (E A D G B E)

/ = Slide up
\ = Slide down
^ = Bend
h = Hammer
p = Pull off


  Bass line? I dunno, but this is played
  throughout the entire song.
E|-------------------------------------------||
B|-------------------------------------------||
G|-------------------------------------------||
D|----11\9--------9\--------2--2/5--5--4-----||
A|-------------9---------2----------------5--||
E|-/7-------7---------0----------------------||


  This is played with very slight
  variations on the end.
E|-------------------------------------------------||
B|-------------------------------------------------||
G|-------------------------------------------------||
D|--7--5--4--5--4^----------4--4-4-4-4-4-4-4-4/7---||
A|-----------------7--5--7-------------------------||
E|-------------------------------------------------||



  This is played with a few variations.
E|------------------------------------------------------------------------------------------------------||
B|------------------------------------------------------------------------------------------------------||
G|--10h11p10--10h11--11--11/14--11--10----10h11p10--10h11--10--11--10h11p10--10h11--11/14--11--10--11---||
D|------------------------------------------------------------------------------------------------------||
A|------------------------------------------------------------------------------------------------------||
E|------------------------------------------------------------------------------------------------------||



There are a couple things that I
can just not figure out. Like the
harmonics solos, the weird ass
distortion part, a few stray notes,
but this is all you need to play


Important: The song above is NOT stored on the Chordie server. The original song is hosted at www.xguitar.com. Chordie works as a search engine and provides on-the-fly formatting. Chordie does not index songs against artists'/composers' will. To remove this song please click here.

This song is displayed as text-only. Transposing and tuning is only available for chordpro-songs.

Login - add to songbook

Rating click stars to rate

Layout
Accuracy

SHARE PAGE  




You need to log in to post comments