Guitar Tabs, Chords and Lyrics


Dark Center of the Universe    Modest Mouse



---------------------------Dark Center of the Universe-----------------------

(Intro)
e|---0---0---0---0---0---0---0---0---0---0---0---0-------2p0-2p0-2p0-2p0--|
B|-5---5---5---5---3---3---3---3---2---2---2---2---0--0--0---0---0---0----|
G|------------------------------------------------------------------------|
D|------------------------------------------------------------------------|
A|------------------------------------------------------------------------|
E|------------------------------------------------------------------------|


e|-2p0-2p0------7--------7----------5--------5----------4--------4---------|
B|-0---0----5-5---5--5-5---5\3--3-3---3--3-3---3\2--2-2---2--2-2---2\0--0-0|
G|-------------------------------------------------------------------------|
D|-------------------------------------------------------------------------|
A|-------------------------------------------------------------------------|
E|-------------------------------------------------------------------------|

e|-2p0-2p0-2p0-2p0-2p0-2p0---|
B|-0---0---0---0---0---0-----|
G|---------------------------|
D|---------------------------|
A|---------------------------|
E|---------------------------|

(Verse)
e|-----0h7p0--------0h7p0--------0h5p0--------0h5p0--------0h4p0----------|
B|-5-5-------5--5-5-------5--3-3-------3--3-3-------3--2-2-------2--2-2---|
G|------------------------------------------------------------------------|
D|------------------------------------------------------------------------|
A|------------------------------------------------------------------------|
E|------------------------------------------------------------------------|

e|-0h4p0-------------------------------|
B|-------2--0--0--0--0--x-x-0-x-x-0----|
G|-------------------------------------|
D|-------------------------------------|
A|-------------------------------------|
E|-------------------------------------|

(Verse pt.2)
e|-x--x--x--x-x-x-x--x--x--|
B|-x--x--x--x-x-x-x--x--x--|
G|-x--x--x--x-x-x-x--x--x--|
D|-x--x--x--x-x-x-x--x--x--|
A|-x--x--x--x-x-x-x--x--x--|
E|-x--x--x--x-x-x-x--x--x--|
No definite pattern.

(Outro)
e|-----------------------------------------------------------------------|
B|-11-11-11-11-11-11-11-11-12-12-12-12-12-12-12-12-----------------------|
G|-----------------------------------------------------------------------|
D|-----------------------------------------------------------------------|
A|-----------------------------------------------------------------------|
E|-----------------------------------------------------------------------|

e|-------------------------------------------------------------------------|
B|-12-12-12-12-11-11-11-11-10-10-10-10-10-10-10-10-11-11-11-11-11-11-11-11-|
G|-------------------------------------------------------------------------|
D|-------------------------------------------------------------------------|
A|-------------------------------------------------------------------------|
E|-------------------------------------------------------------------------|

e|-------------------------------------------------------------------------|
B|-12-12-12-12-12-12-12-12-12-12-12-12-12-12-12-12-11-11-11-11-11-11-11-11-|
G|-------------------------------------------------------------------------|
D|-------------------------------------------------------------------------|
A|-------------------------------------------------------------------------|
E|-------------------------------------------------------------------------|

e|-------------------------10-10-10-10-10-10-10-10-------------------------|
B|-12-12-12-12-12-12-12-12-------------------------12-12-12-12-11-11-11-11-|
G|-------------------------------------------------------------------------|
D|-------------------------------------------------------------------------|
A|-------------------------------------------------------------------------|
E|-------------------------------------------------------------------------|

e|-------------------------------------------------------------------------|
B|-10-10-10-10-10-10-10-10-11-11-11-11-11-11-11-11-8-8-8-8-8-8-8-8-11-11-11|
G|-------------------------------------------------------------------------|
D|-------------------------------------------------------------------------|
A|-------------------------------------------------------------------------|
E|-------------------------------------------------------------------------|

e|--------------------10---------10--------10-------10-------10---------|
B|-11-12-12-12-12--12----12--10-----12--10----12-10----12-10----10--12--|
G|----------------------------------------------------------------------|
D|----------------------------------------------------------------------|
A|----------------------------------------------------------------------|
E|----------------------------------------------------------------------|

e|----10-------10-------10-------10-------10--------------------------|
B|-12----12-10----12-10----12-10----12-10----12--11-10---10/11-11/12--|
G|--------------------------------------------------------------------|
D|--------------------------------------------------------------------|
A|--------------------------------------------------------------------|


Important: The song above is NOT stored on the Chordie server. The original song is hosted at www.xguitar.com. Chordie works as a search engine and provides on-the-fly formatting. Chordie does not index songs against artists'/composers' will. To remove this song please click here.

This song is displayed as text-only. Transposing and tuning is only available for chordpro-songs.

Login - add to songbook

Rating click stars to rate

Layout
Accuracy

SHARE PAGE  




You need to log in to post comments