Guitar Tabs, Chords and Lyrics


I Came as a Rat    Modest Mouse



Modest Mouse - I Came As A Rat
Submitted By: Ryan Davis
EMail: ikilledsuperman@bellsouth.net

Tuning: Standard (E A D G B E)



   Intro verse
E|-----------------------------------------------------------||
B|-----------------------------------------------------------||
G|-----------------------------------------------------------||
D|--------7-------------10--------------5--------------3-----||
A|-----7-----7-------10----10--------5-----5--------3-----3--||
E|--5--------------8--------------3--------------1-----------||

   Regular verse
E|------------------------------------------||
B|------------------------------------------||
G|------------------------------------------||
D|--7-7-xxxx-10-10-xxxx-5-5-xxxx-3-3-xxxx---||
A|--7-7-xxxx-10-10-xxxx-5-5-xxxx-3-3-xxxx---||
E|--5-5-xxxx--8--8-xxxx-3-3-xxxx-1-1-xxxx---||


  End both on
E|---------------||
B|---------------||
G|---------------||
D|--3--3---------||
A|--3--3---------||
E|--1--1---------||


  The "Huh oh oh" part
E|----------------------------------------------------------------||
B|----------------------------------------------------------------||
G|--9h10-9h10--7--------------------------------------------------||
D|----------------10p9--9h10-9h10--7------------------------------||
A|------------------------------------10p9--7--10---7-/9----------||
E|--------------------------------------------------------10--8---||


 A second guitar plays this at one point.
E|------------------------------||
B|------------------------------||
G|--9h10-9h10--7-----------12---||
D|----------------10p9--9-------||
A|------------------------------||
E|------------------------------||


  Outro
E|-----------------------------------------||
B|-----------------------------------------||
G|-----------------------------------------||
D|--9--11--12------------------------------||
A|-------------12--9-----------------------||


Important: The song above is NOT stored on the Chordie server. The original song is hosted at www.xguitar.com. Chordie works as a search engine and provides on-the-fly formatting. Chordie does not index songs against artists/composers will. To remove this song please click here.

This song is displayed as text-only. Transposing and tuning is only available for chordpro-songs.

Login - add to songbook

Rating click stars to rate

Layout
Accuracy

SHARE PAGE  




You need to log in to post comments