Guitar Tabs, Chords and Lyrics


Paper Thin Walls   Modest Mouse

--x-x-x--x-x--x-x-x-x-x----------------------------------|


--5-5-7--7-7--7-7-7-5-5----------------------------------|


--6-6-6--6-6--6-6-6-7-6---repeat this once more----------|

--7-7-7--7-7--7-7-7-7-7----------------------------------|
---------------------------------------------------------|
---------------------------------------------------------|
--x-x-x--x-x-x-x--x-x-x--xx------------------------------|
--7-7-7--7-7-7-7--7-7-7--77------------------------------|
--7-7-7--7-7-7-7--7-7-7--77-------that is about it-------|
--7-7-7--7-7-7-7--7-7-7--77--just mess around and listen-|
--5-5-5--5-5-5-5--5-5-5--55------------------------------|
---------------------------------------------------------|
[A]  [D]                                   
[A]These walls are paper thin and everyone hears every little [D]sound.
[A]Everyone's a voyeur as they're watching me watch them watch me right [D]now.
They're shaking hands they're ahaking in their shoes oh lord donn't shake me down.
Everyone wants two of them and half of everyone else is around.
It's been agreed the whole world stinks so no one's taking showers anymore.

Switch to simply strumming the A chord:


[A]Laugh hard--it's a long ways to the [D]bank
[A]I can't be blamed for nothing [D]anymore.
[A]It's been a long time since you've been [D]around.
[A]Laugh hard--it's a long ways to the [D]bank
[A]   [D]   [Bm]   [Cm]                            
[A]Tow the line to [D]tax the time you [Bm]know that you don't [Cm]owe.
[A]I can't be a [D]fool for every [Bm]one that I don[Cm]'t know.
And repeat the whole damn thing.

Important: The song above is NOT stored on the Chordie server. The original song is hosted at www.xguitar.com. Chordie works as a search engine and provides on-the-fly formatting. Chordie does not index songs against artists'/composers' will. To remove this song please click here.

Text color:
Chord color:
Chord grids: 
Font size:    
Page size: 

A Bm Cm D
variations - click chord images

Login - add to songbook

Transpose chords

Tuning

Rating click stars to rate

Layout
Accuracy

SHARE PAGE  




You need to log in to post comments