Guitar Tabs, Chords and Lyrics


Tiny Cities Made of Ashes    Modest Mouse



------------------------Tiny Cities Made of Ashes----------------------------

(Harmonics)
e|-------|
B|-12+b--|
G|-12+b--|
D|-------|
A|-------|
E|-------|

e|-------|
B|-------|
G|--5+b--|
D|-------|
A|-------|
E|-------|

e|-------|
B|-12+b--|
G|-------|
D|-------|
A|-------|
E|-------|


(Played live at chorus)
e|-------------------------------------------------|
B|-------------------------------------------------|
G|-9--9--9--9-9--9--9-10----9--9--9--9-9--9--9--7--|
D|-x--x--x--x-x--x--x--x----x--x--x--x-x--x--x--x--|
A|-7--7--7--7-7--7--7--8----7--7--7--7-7--7--7--5--|
E|-------------------------------------------------|

(Outro)
e|-11--9--11--9--7--9--7--9-----7--9--7--9/11--9--7--9--|
B|---------------------------9--------------------------|
G|------------------------------------------------------|
D|------------------------------------------------------|
A|------------------------------------------------------|
E|------------------------------------------------------|

(Outro ending 1)
e|-11--9--11--9--7--9--7--9------------------7--|
B|---------------------------9----7-----9-------|
G|----------------------------------------------|
D|----------------------------------------------|
A|----------------------------------------------|
E|----------------------------------------------|

(Outro ending 2)
e|-11--9--11--9--7--9--7--9-------------------|
B|---------------------------9--7--9/11--9~---|
G|--------------------------------------------|
D|--------------------------------------------|
A|--------------------------------------------|
E|--------------------------------------------|

(Outro Harmonics)
e|-------|
B|-------|
G|-------|
D|--12+b-|
A|-------|
E|-------|

e|-------|
B|--5+b--|
G|-------|
D|-------|
A|-------|


Important: The song above is NOT stored on the Chordie server. The original song is hosted at www.xguitar.com. Chordie works as a search engine and provides on-the-fly formatting. Chordie does not index songs against artists'/composers' will. To remove this song please click here.

This song is displayed as text-only. Transposing and tuning is only available for chordpro-songs.

Login - add to songbook

Rating click stars to rate

Layout
Accuracy

SHARE PAGE  




You need to log in to post comments