Guitar Tabs, Chords and Lyrics


Dukes Up    Modest Mouse



The Tabs to the beginning are this, I couldn't find the rest of the tabs online.



e|--------------------------------------------------------------------	}
B|--------------------------------------------------------------------  }
G|------------4--------5---------7----------7-----7----------------   }
D|------5-5------5-5------5-5----------5-----5-------------------   }
A|-------------------------------------------------------------------   }
E|-------------------------------------------------------------------   }
								}  x5
e|--------------------------------------------------------------------   }
B|-------------------------------------------------------------------   }
G|-------------------------------------------------------------------   }
D|------------4--------5---------7----------7-----7----------------   }
A|------5-5------5-5------5-5----------5-----5-------------------   }
E|-------------------------------------------------------------------   }


Important: The song above is NOT stored on the Chordie server. The original song is hosted at www.xguitar.com. Chordie works as a search engine and provides on-the-fly formatting. Chordie does not index songs against artists'/composers' will. To remove this song please click here.

This song is displayed as text-only. Transposing and tuning is only available for chordpro-songs.

Login - add to songbook

Rating click stars to rate

Layout
Accuracy

SHARE PAGE  




You need to log in to post comments