Guitar Tabs, Chords and Lyrics


Four Fingered Fisherman    Modest Mouse



Modest Mouse - Four Fingered Fisherman
Tabbed By: Coolmandan04
Email: coolmandan04@aol.com

Tuning: Standard (E A D G B E)



E|----------------------------------------------------------------||
B|----------------------------------------------------------------||
G|---7--4--0-------------7--4--0----------------------------------||
D|-------------7--4--0-------------0---5--7b----------------------||
A|-----------------------------------7----------------------------||
E|----------------------------------------------------------------||


E|----------------------------------------------------------------||
B|----------------------------------------------------------------||
G|---7--4--0-------------7--4--0----------------------------------||
D|-------------7--4--0-------------0---5--7b-5--------------------||
A|-----------------------------------7----------------------------||
E|----------------------------------------------------------------||

Listen for how many times he plays this and im not too sure about
how he plays these notes, but it sounds like this chord

E|-----------------------------------------------------------||
B|-----------------------------------------------------------||
G|----------------------5----5---4---------------------------||
D|---5-5-5-5-5-5-5-5-5----------------5-5-5-5-5-5-5----------||
A|----------------------3----3---3---------------------------||
E|---3-3-3-3-3-3-3-3-3----------------3-3-3-3-3-3-3----------||

  End of the song
E|----------------------------------------------------------------||
B|----------------------------------------------------------------||
G|--------7-7-7-7-7-7--5-5-5-5-5-5 4-4-4-4-4-4-5-5-5-5-5-5--------||
D|----------------------------------------------------------------||
A|----------------------------------------------------------------||
E|----------------------------------------------------------------||


E|----------------------------------------------------------------||
B|----------------------------------------------------------------||
G|----5-5-5-5--7-7-7-7---9-9-9-9---5----------------------------------------||
D|----------------------------------------------------------------||
A|----3-3-3-3--5-5-5-5---7-7-7-7---3-------------------------------------------||


Important: The song above is NOT stored on the Chordie server. The original song is hosted at www.xguitar.com. Chordie works as a search engine and provides on-the-fly formatting. Chordie does not index songs against artists'/composers' will. To remove this song please click here.

This song is displayed as text-only. Transposing and tuning is only available for chordpro-songs.

Login - add to songbook

Rating click stars to rate

Layout
Accuracy

SHARE PAGE  




You need to log in to post comments