Guitar Tabs, Chords and Lyrics


Red Hand Case    Modest Mouse



Modest mouse - Red Hand Case
Tabbed By: Coolmandan04
Email: coolmandan04@aol.com

Tuning: Standard (E A D G B E)



Opening main part, coolest part.
o
E|----------------------------------------------------------------||
B|----------------------------------------------------------------||
G|--------------7-------------------------------------------------||
D|------7b----5---5-----8-------7b-5--7---------------------------||
A|----------7---------7-------7-----------------------------------||
E|------------------8-----8-7-------------------------------------||

some pick up guitar thing
E|---12--10---------------------------------------||
B|-----------12--10--8--10--8---------------------||
G|------------------------------------------------||
D|------------------------------------------------||
A|------------------------------------------------||
E|------------------------------------------------||

small guitar thing
E|--------------------------------||
B|--------------------------------||
G|----9b---7--9-------------------||
D|--------------------------------||
A|--------------------------------||
E|--------------------------------||

chord part, when he starts singing

E|--------------------------------||
B|--------------------------------||
G|--7-7---------------------------||
D|--5-5--8-8-7--------------------||
A|--7-7--7-7-6--------------------||
E|-------8-8-7--------------------||

closing notes
E|----------------||
B|---10b--10-8----||

G|------------9---||
D|----------------||
A|----------------||


Important: The song above is NOT stored on the Chordie server. The original song is hosted at www.xguitar.com. Chordie works as a search engine and provides on-the-fly formatting. Chordie does not index songs against artists'/composers' will. To remove this song please click here.

This song is displayed as text-only. Transposing and tuning is only available for chordpro-songs.

Login - add to songbook

Rating click stars to rate

Layout
Accuracy

SHARE PAGE  




You need to log in to post comments