Guitar Tabs, Chords and Lyrics


Dramamine    Modest Mouse



Modest Mouse: Dramamine
Tabbed by Steve Burnham

1st BASSLINE:
G-------------------------|
D---5-----4-----2-----4---|repeat a bunch
A-7---7-5---5-3---3-----5-|
E-------------------3-----|

2nd BASSLIND:
G-----------------------------|
D---5-----4-----2-------------|repeat a bunch toward end of the song
A-7---7-5---5-3---3/10 10 10--|then it goes back to BASSLINE #1.
E-----------------------------|

    H: harmonic
    W: Whammy
E---------------|
B-HW5-----------|
G-------HW5-HW5-|This is at the beginning and the end, if it doesn't
D----HW5--------|sound right it may be one string too low.
A---------------|
E---------------|

This is the order you play the parts in: listen to the song to get it
exactly right: 1-2-3-1-2-3-4-1-2-5

GUITAR PART ONE
E--------------|
B--------------|
G-9-7-9/12-9-7-|
D--------------|
A--------------|
E--------------|

GUITAR PART TWO
E--------------|
B--------------|
G--------------|
D-9-7-5/7-9-5--|
A--------------|
E--------------|

GUITAR PART THREE
E--------------------------|
B--------------------------|
G-9-7-9/12-9-7-9-7-0-7-5-0-|
D--------------------------|
A--------------------------|
E--------------------------|

GUITAR PART FOUR
E--------------------------|
B--------------------------|
G--------------------------|
D-9-7-0-7-5-7/9/5~~~~------|
A--------------------------|
E--------------------------|

GUITAR PART FIVE
E--------------------------|
B--------------------------|
G-9-7-9/12-9-7/12~~~~------|
D--------------------------|
A--------------------------|
E--------------------------|

For the chorus there is a bunch of crunchy power chords E5, D5, G5 etc. play
with them and figure out the strumming.  These might not be exactly right.

SOLO PART ONE
E----------------------------------------------|
B-12-10----------------------------------------|
G-------12-11-12-11/7~~~~-7/5-4h5-4h5/7-5p4p0--|X2
D----------------------------------------------|
A----------------------------------------------|
E----------------------------------------------|
the second time, the slides are a little different but not much

SOLO PART TWO
E--7-------7-------------------------|
B----10------10---8h10---8h10--------|
G-------9-------9------9------9------|This is played a few times
D------------------------------------|then they go back too the regular
A------------------------------------|guitar parts.


Important: The song above is NOT stored on the Chordie server. The original song is hosted at www.xguitar.com. Chordie works as a search engine and provides on-the-fly formatting. Chordie does not index songs against artists'/composers' will. To remove this song please click here.

This song is displayed as text-only. Transposing and tuning is only available for chordpro-songs.

Login - add to songbook

Rating click stars to rate

Layout
Accuracy

SHARE PAGE  




You need to log in to post comments