Guitar Tabs, Chords and Lyrics


Exit Does Not Exist    Modest Mouse



Modest Mouse - Exit does not Exist
Tabbed By: Coolmandan04
Email: coolmandan04@aol.com

Tuning: Standard (E A D G B E)



beginning is tough, can't make out, bass and guitar are playing very
close notes , i know a couple of these notes are right.

E|----------------------------------------------------------------||
B|----------------------------------------------------------------||
G|----------------------------------------------------------------||
D|------4----7-4------4------5-7-9-7------------------------------||
A|---2-------------2----------------------------------------------||
E|----------------------------------------------------------------||

Chord - best part- listen to song for rythm

E|----------------------------------------------------------------||
B|-----.-------.--------------------------------------------------||
G|11---9---11--7----------------11----7---9-----------------------||
D|----------------------------------------------------------------||
A|-9---7---9---5-----------------9----5---7-----------------------||
E|----------------------------------------------------------------||

   variation of the same chord right before solo
E|----------------------------------------------------------------||
B|----------------------------------------------------------------||
G|--11------------------9-----------------------------------------||
D|------11-12-11-12-11--------------------------------------------||
A|---9------------------7-----------------------------------------||
E|-------9-10--9-10--9--------------------------------------------||

Isaac's solo
E|----------------------------------------------------------------||
B|------10--12--10------10--12--10------10--12--14----------------||
G|---11-------------11--------------11----------------------------||
D|----------------------------------------------------------------||
A|----------------------------------------------------------------||
E|----------------------------------------------------------------||

   2nd part to solo, listen for the full effect
He plays the high note more, but im not going to write in every
note.
E|----------------------------------------------------------------||
B|--19--19---19---19-----14b--------------------------------------||
G|----------------------------------------------------------------||
D|----------------------------------------------------------------||
A|----------------------------------------------------------------||


Important: The song above is NOT stored on the Chordie server. The original song is hosted at www.xguitar.com. Chordie works as a search engine and provides on-the-fly formatting. Chordie does not index songs against artists'/composers' will. To remove this song please click here.

This song is displayed as text-only. Transposing and tuning is only available for chordpro-songs.

Login - add to songbook

Rating click stars to rate

Layout
Accuracy

SHARE PAGE  




You need to log in to post comments