Guitar Tabs, Chords and Lyrics


Lounge    Modest Mouse



Lounge

transcribed by Mark (tilex@erie.net)

Intro:
e------------------------------------
B------------------------------------
G---6xx6x-----------6xx6x------------
D---8xx8x-5-6-8-6-5-8xx8x-8-6-5-6-8--
A------------------------------------
E------------------------------------

e---------------------------------
B---------------------------------
G---6xx6x6-------6xx6x------------
D---8xx8x8-7^8---8xx8x-8-6-5-6-8--
A---------------------------------
E---------------------------------

e----------------------
B---7---7---7----------
G---7---7---7----------
D---7^8-7^8-7^8--7^8---
A----------------------
E----------------------

"he entered the club scene..."
e---6xx6x66x66x-x6xx6x66x66x--4-4-4-3-3-4--
B---6xx6x66x66x-x6xx6x66x66x--4-4-4-3-3-4--
G---6xx6x66x66x-x6xx6x66x66x--4-4-4-3-3-4--
D---8xx8x88x88x-x8xx8x88x88x--6-6-6-5-5-6--
A------------------------------------------
E------------------------------------------

outro:
(guitar 1 or bass)
e---------------------------
B---------------------------
G---------------------------
D---8-8-8-8-7-7-7-7---------
A-------------------8-8-8-8-
E---------------------------

(lead guitar)
part 1
e-------------------------------------
B-------------------------------------
G--7-8-----7-8-----7-8-----7-8-10-----
D------7-8-----7-8-----7-8------------
A-------------------------------------
E-------------------------------------

part 2
e--------------------------------------
B--------------------------------------
G--10-10-10-10-8-8-8-8-7-7-7-7---------
D------------------------------8-8-8-8-
A--------------------------------------
E--------------------------------------

there's a lot more to this, but it seems


Important: The song above is NOT stored on the Chordie server. The original song is hosted at www.xguitar.com. Chordie works as a search engine and provides on-the-fly formatting. Chordie does not index songs against artists'/composers' will. To remove this song please click here.

This song is displayed as text-only. Transposing and tuning is only available for chordpro-songs.

Login - add to songbook

Rating click stars to rate

Layout
Accuracy

SHARE PAGE  




You need to log in to post comments