Guitar Tabs, Chords and Lyrics


God Of Emptiness    Morbid Angel



God of Emptiness
Morbid Angel
drop tune about 3 steps

   )
  /\                         )
 / | full bend and release  /| half bend and release
|-----------------------------------------------------------0------------------|
|-----------------------------------------------------------0---------16~~-----|
|-9------------------------------------------------5/10-----4--6-7-9/----------|
|-9-------------4/--9-----9-\-8-----9\-----------------------------------------|
|-7-----------------7----------------------1-1-1---3/8------2------------------|
|-0------0--0---2/--7-----7-\-6-----7\-----1-1-1---------------------------0-0-|

|-----------------------------------------------------------------|
|-----------------------------------------------------------------|
|-8/9\8-----------------------------8/9\8----------------6-/-7--7-|
|-----------------------------------------------------------------|
|-6/7\6--8/9--(9)\4--9--5-----------6/7\6--8/9--(9)\4----4-/-5--5-|
|--------6/7--(7)\2--7--6--0--0-0----------6/7--(7)\2-------------|

|-----------------------------------------------------------0------------------|
|-----------------------------------------------------------0---------16~~-----|
|-9------------------------------------------------5/10-----4--6-7-9/----------|
|-9-------------4/--9-----9-\-8-----9\-----------------------------------------|
|-7-----------------7----------------------1-1-1---3/8------2------------------|
|-0------0--0---2/--7-----7-\-6-----7\-----1-1-1---------------------------0-0-|

|----------------------------------------------------------------------
|----------------------------------------------------------------------
|-8/9\8-----------------------------8/9\8----------------6-/-7--7--9---
|----------------------------------------------------------------------
|-6/7\6--8/9--(9)\4--9--5-----------6/7\6--8/9--(9)\4----4-/-5--5--7---
|--------6/7--(7)\2--7--6--0--0-0----------6/7--(7)\2--------------0---

|------------------------------------------------------------------------------|
|------------------------------------------------------------------------------|
|-9--11--11/12--11-------------------------------------------------------------|
|-------------------7--5----------------------9---9---9--8--9------------------|
|-7--9---9-/10--9---5--3--9--4-4----2-2--2-/-10--10--10--9--9------4--7--5--2--|
|-------------------------7--2-2----0-0---------------------7------2--5--3--0--|

|--------------------------------------------------------------------------|
|--------------------------------------------------------------------------|
|-9--11--11/12--11---------------------------------------------------------|
|-------------------7--5----------------------9---9---9--8--9--------------|
|-7--9---9-/10--9---5--3--9--4-4----2-2--2-/-10--10--10--9--9------4--7--5-|
|-------------------------7--2-2----0-0---------------------7------2--5--3-|

lyrics start..
|----------------------------------------------------------------------------
|--------------------------------------------10------------------------------
|----)---------------------------------------10-----)------------------------
|---/\-----------------)---)------------)----10----/\-----------------)---)--
|--/-|----------------/---/|-----------/|---------/-|----------------/---/|--
|-1---0--1--0--2--0--1---2---0--1--0--1---2------1---0--1--0--2--0--1---2----

|------------------------------------------------------------------------------
|--------------------------------------------------------------------------10--
|----------------------------------)---------------------------------------10--
|---------------------------------/\-----------------)---)------------)----10--
|------------h-h-p---------------/-|----------------/---/|-----------/|--------
|--0--1--0--0-1-2-1---3-3-3-3---1---0--1--0--2--0--1---2---0--1--0--1---2------

|-------------------------------------------------------|---------------------
|-------------------------------------------------------|---------------------
|----)--------------------------------------------------|---------------------
|---/\-----------------)---)----------------------------|---------------------
|--/-|----------------/---/|-----------h-h-p------------|------------4/5---4--
|-1---0--1--0--2--0--1---2---0--1--0--0-1-2-1---3-3-3-3-|--2~~~--0-0-2/3-0-2--

|-------------------------------------------------|-----------------------------
|-------------------------------------------------|-----------------------------
|---------------------------------3/4-----3/4\3---|-----------------------------
|-------------------------------------------------|-----------------------------
|------3------------------4/5-----4/5-----4/5\4---|------------4/5---4-------3--
|-0-0--1--0-0--2~~~--0-0--2/3--0--2/3--0--2/3\2---|--2~~~--0-0-2/3-0-2--0-0--1--

|----------------------------------------|-----------------------------|
|----------------------------------------|-----------------------------|
|-------------------------3/4-----3/4\3--|-----------------------------|
|----------------------------------------|-----------------------------|
|-----------------4/5-----4/5-----4/5\4--|------------4/5---4-------3--|
|-0-0--2~~~--0-0--2/3--0--2/3--0--2/3\2--|--2~~~--0-0-2/3-0-2--0-0--1--|

guitar one on the bottom and guitar two on the top
|---------------------------------------------------------------------
|--------------------------------6---8---9---8---9\8--}---------------
|---2-------------------------------------------------}---------------
|---3--}2-2-2-2-2-2-2-2-3--5-3-3-3-5-5-6-6-5-5-6-6\5--}---------------
|---------------------------------------------------------------------
|---1-->0-0-0-0-0-0-0-0-1--3-1-1---3---4---3---4----------------------

|------------------------------------------------------------|---------------
|------------------------------6---6---8---8--8--------------|---------------
|-2----------------------------------------------------------|------------2--
|-3---2-2-2-2-2-2-2-2-3--5-3-3-3-3-3-5-5-5-5--5---Two times--|-5----------2--
|------------------------------------------------------------|-6--5-5-0-0-0--
|-1---0-0-0-0-0-0-0-0-1--3-1-1---1---3---3-------------------|---------------

|-----------------------------------------------------------------------------|
|-----------------------------------------------------------------------------|
|--8--10-----8---10---11---10---11\10--------------7-----8--10-----8---8--10--|
|---------------------------------------5-------------------------------------|
|--6--8--6-6---8----9----8----9---------6--5-5-0-0-5--0--6--8--6-6---6----8---|
|-----------------------------------------------------------------------------|

|---------------------------------------------------------------------------|
|---------------------------------------------------------------------------|
|--9----10-9/10--12--13\-----------8---8/7--7-------------------------------|
|----------------------------------------------------------------Two times--|
|--7----8--7/8---10--11\-----------6---6/5--5--5\2-4-----4-4-2--------------|
|--------------------------0---0---------------6\0-5--0--5-5-3--------------|

                                                    bow  to  me    faithfully..
|---------------------------------------------------|--------------------------
|---------------------------------------------------|--------------------------
|--9----10-9/10--12--13\-----------8---8/7--7-------|-6-----6--------/9-----9--
|---------------------------------------------------|--------------------------
|--7----8--7/8---10--11\-----------6---6/5--5--5\2--|-4-----4--------/7-----7--
|--------------------------0---0---------------6\0--|-5--5--5--5--5--/8-----8--

|-------------------------------------------------------------|----------------
|-------------------------------------------------------------|----------------
|-8/9--------6-----6--------/9------9\8--8\-------------------|-6-----6--6-----
|-------------------------------------------------------------|----------------
|-6/7-X--4---4-----4--------/7------7\6--6\----X--------------|-4-----4--4--7--
|-7/8-X--5---5--5--5--5--5--/8------8\7--7\----X--------------|-5--5--5--5-/---

|------------------------------------------------------------------------------
|------------------------------------------------------------------------------
|--9----10-9/10--12--13\-----------8---8/7--7--------------------9----10-9/10--
|------------------------------------------------------------------------------
|--7----8--7/8---10--11\-----------6---6/5--5--5\2-4-----4-4-2---7----8--7/8---
|--------------------------0---0---------------6\0-5--0--5-5-3-----------------

|-----------------------------------|-----------------------------------------
|-----------------------------------|-----------------------------------------
|-12--13\----------8---8\7--7-------|-6-----6--------/9-----9---8/9--------6--
|-----------------------------------|-----------------------------------------
|-10--11\----------6---6\5--5--5\2--|-4-----4--------/7-----7---6/7-X--4---4--
|----------0---0---------------6\0--|-5--5--5--5--5--/8-----8---7/8-X--5---5--

------------------------------------|
------------------------------------|
-----6--------/9------9\8--8\-------|
------------------------------------| repeat srveral times till end
-----4--------/7------7\6--6\----X--|
--5--5--5--5--/8------8\7--7\----X--|



Important: The song above is NOT stored on the Chordie server. The original song is hosted at www.xguitar.com. Chordie works as a search engine and provides on-the-fly formatting. Chordie does not index songs against artists'/composers' will. To remove this song please click here.

This song is displayed as text-only. Transposing and tuning is only available for chordpro-songs.

Login - add to songbook

Rating click stars to rate

Layout
Accuracy

SHARE PAGE  




You need to log in to post comments