Chordie logo

Caesar's Palace    Morbid Angel



tuning is one step down from E A D G B e so it be Eb Ab etc

slide      = /
bend       = ( )
muted bits = .....




intro

         play this 3 times

Eb] -------------8--7--6------------8--7--6------
Ab] -------(19)--6--5--4--------19--6--5--4------
Db] -19-18---------------19-18-------------------
Gb] ---------------------------------------------
Bb] ---------------------------------------------
eb] ---------------------------------------------

         on the fourth time its played

Eb] -------------8--7--6------------8--7--6---1--
Ab] -------(19)--6--5--4--------19--6--5--4---3--
Db] -19-18---------------19-18-------------------
Gb] ---------------------------------------------
Bb] ---------------------------------------------
eb] ---------------------------------------------


          play these 2 in order twice

riff 1 part 1

Eb] -0-0--12-11-12--0-0-----------0-0--12-11-12-7-6-7-6-5-5--
Ab] -------------------20-19-18------------------------------
Db] ---------------------------------------------------------
Gb] ---------------------------------------------------------
Bb] ---------------------------------------------------------
eb] ---------------------------------------------------------


riff 1 part 2

Eb] -0-0--12-11-12--0-0-----------0-0--12-11-12-7-6-7-10-6-7-
Ab] -------------------20-19-18------------------------------
Db] ---------------------------------------------------------
Gb] ---------------------------------------------------------
Bb] ---------------------------------------------------------
eb] ---------------------------------------------------------




riff 2

         play this 3 times

E] -5-5-5-5-0-0-0-0-8--8--8--8--5-5-5-5--44444444----------------------------
A] -7-7-7-7-2-2-2-2-10-10-10-10-7-7-7-7----------666666665555555522222222----
D] --------------------------------------------------------------------------
G] --------------------------------------------------------------------------
B] --------------------------------------------------------------------------
e] --------------------------------------------------------------------------

         play this on the 4th time

E] -5-5-5-5-0-0-0-0-8--8--8--8--5-5-5-5--44444444------------------3-2-1-----
A] -7-7-7-7-2-2-2-2-10-10-10-10-7-7-7-7----------6666666655555555--5-4-3-----
D] --------------------------------------------------------------------------
G] --------------------------------------------------------------------------
B] --------------------------------------------------------------------------
e] --------------------------------------------------------------------------


riff3

         play this 3 times

Eb] -1-0---0-0--6/2-0-0-----1-0---0-0--6/2-0-0-1-------
Ab] -3-2-2-2-2--8/4-2-2-2---3-2-2-2-2--8-4-2-2-3-------
Db] -----4--------------4-------4----------------------
Gb] ---------------------------------------------------
Bb] ---------------------------------------------------
eb] ---------------------------------------------------
           . .       . .           . .     . .



riff4

         play this 4 times

Eb] -3-3-2-3-5-5-4------555--
Ab] -5-5-4-5-7-7-6-5/4--777--
Db] ---------------7/6-------
Gb] -------------------------
Bb] -------------------------
eb] -------------------------
                        ...



back to riff3

         play this 3 times

Eb] -1-0---0-0--6/2-0-0-----1-0---0-0--6/2-0-0-1-------
Ab] -3-2-2-2-2--8/4-2-2-2---3-2-2-2-2--8-4-2-2-3-------
Db] -----4--------------4-------4----------------------
Gb] ---------------------------------------------------
Bb] ---------------------------------------------------
eb] ---------------------------------------------------
           . .       . .           . .     . .



riff4 but it changes a lil bit

         play this 3 times

Eb] -3-3-2-3-5-5-4-----555------
Ab] -5-5-4-5-7-7-6-5/4-777------

Db] ---------------7/6----------
Gb] ----------------------------
Bb] ----------------------------
eb] ----------------------------
                       ...


          play this on the 4th time

Eb] -3-3-2-3-5-5-4---------------
Ab] -5-5-4-5-7-7-6-5-------------
Db] ---------------7-------------
Gb] -----------------------------
Bb] -----------------------------
eb] -----------------------------


after this the solo comes in sorry i cant work it out but this is the riff behind the solo

riff5
           play this 5 times

Eb] -1/2---2-1-222---2/3---------
Ab] -3/4-2-4-3-444-2-4/5-3-------
Db] -----4---------4-----5-------
Gb] -----------------------------
Bb] -----------------------------
eb] -----------------------------
               ...


           play  this on the 6th time


Eb] -1/2---2-1-222-----4-3-------
Ab] -3/4-2-4-3-444-2-4-6-5-------
Db] -----4---------4-6-----------
Gb] -----------------------------
Bb] -----------------------------
eb] -----------------------------
               ...



riff 6


Eb] -1/2---2-1-222---2/3---------
Ab] -3/4-2-4-3-444-2-4/5-3-------
Db] -----4---------4-----5-------
Gb] -----------------------------
Bb] -----------------------------
eb] -----------------------------
               ...




Important: The song above is NOT stored on the Chordie server. The original song is hosted at www.xguitar.com. Chordie works as a search engine and provides on-the-fly formatting. Chordie does not index songs against artists/composers will. To remove this song please click here.

This song is displayed as text-only. Transposing and tuning is only available for chordpro-songs.

Login - add to songbook

Rating click stars to rate

Layout
Accuracy

SHARE PAGE  

You need to log in to post comments