Chordie logo


Ageless, Still I Am    Morbid Angel



Morbid Angel - Ageless, Still I Am
Album: Gateways to Annihilation
Tabbed by: SARSGUITAR (HERBY)
Tuning: Eb Ab Db Gb Bb Eb

Note: Listen VERY closely to all the rhythm changes
and all the triplets. This song is SOO Phenomonal!!
/ \ = slide
.. = palm mute
x = deftone
" = trem.pick

Intro riff
----------------------------||
----------------------------||
----------------------------|| gtr.1
----------------------------||
------------2-1--1----------||
000-00--2-3-----2-2-5-1-5-1-||
... ..

somewhere he plays:
----------------------------||
----------------------------||
----------------------------|| gtr.2
----------------------------||
-------2-1-------1----------||
000-00-----3-2--2-2-5-1-5-1-||
... ..

--------------------------------||
--------------------------------||
--------------------------------||
--------------------------------||
------------2-1--1-2--6-2-6-2---||
000-00--2-3-----2-2-------------||
... ..

Main Riff 1 (all trem.pick) 4x
-----------------------------------|
-----------------------------------|
-----------------------------------|
-----------------------------------|
5----3-2-3-2-------5----7-8-10-8---|
------------3-0-2------------------|
       . . .. . .

Main Riff 2 (after 4x mainriff 1)
-----------------------------------------------------||
-----------------------------------------------------||
----------------------------------------------------o||
----------3---2------------------3------------------o||
5---3--232-5-3-5--0-3--5---3--232-5-10-5-10-5-10-5---||
-----------------------------------------------------||
       ... . . .  . .         ...

Riff 3
not sure)      ending a)       b)       c)
--------------|--------|--------|--------|-----------------||
--------------|--------|--------|--------------------------||
--------------|--------|--------|--------------------------||
652-----------|-2"-3"--|-5"-6"--|-7"-8"--------------------||
---542--------|--------|--------|----------8-7-3-7---0-3---||
------532-010-|--------|--------|--------------------------||
......... ...                                        . .


Riff 4 (after first solo)
really not sure about this |
---------------------------|
---------------------------|
---------------------------|
653-532--------------------|
-------542-----------------|
----------532-421-010-020--|
... ......... ... ... ...

--------------------------------------------------||
--------------------------------------------------||
-------------------------------------------------o||
-----------------------7x7--8--7-8-11-12-8-11-8--o||
8x8--9-8-5-8-5--3-2-3-----------------------------||
--------------------------------------------------||

Riff 5
                     4x
-----------------------|--------------||
-----------------------|--------------||
-----------------------|--------------||
-----------------------|--8--8--8--8--|| gtr.1
--3---4----3-5-4-3-4-3-|-5--5--5--5---||
/2------/2-------------|--------------||

**second solo**

Then back to Mainriff 1&2

last solo

End.

Enjoy this one!!! Its really one of the best songs MA made!!


Important: The song above is NOT stored on the Chordie server. The original song is hosted at www.xguitar.com. Chordie works as a search engine and provides on-the-fly formatting. Chordie does not index songs against artists/composers will. To remove this song please click here.

This song is displayed as text-only. Transposing and tuning is only available for chordpro-songs.

Login - add to songbook

Rating click stars to rate

Layout
Accuracy

SHARE PAGE  




You need to log in to post comments