Chordie logo

Audra    Mortician



MORTICIAN - AUDRA
                     From the Album - DARKEST DAY OF HORROR
                            Copyright - Relapse 2003
                           Version 1.0 - Dec.12, 2003

Tabbed by: Bobby Rafuse

For Questions, Comments, Newest Version, or Corrections contact
 Bobby at: metal_music69@hotmail.com

Tuning - 4 1/2 steps down

*NOTE* Some riffs may not be 100% right but bear with me. Anyone who knows Mortician
  knows that most of those LOW notes are hard to hear but I tried my best to get it.


RIFF 1 (4x)
|-----------------|----------------|----------------|----------------|
|-----------------|----------------|----------------|----------------|
|-----------------|----------------|----------------|----------------|
|-----------------|----------------|----------------|----------------|
|-4---3---6-------|4---3---5-------|4---3---2-------|6---5---4---3---|
|-2---1---4-------|2---1---3-------|2---1---0-------|4---3---2---1---|
pm.   .            .   .            .   .            .   .   .   .


RIFF 2a
|-----------------|----------------|----------------|----------------|
|-----------------|----------------|----------------|----------------|
|-----------------|----------------|----------------|----------------| Gtr.
|-----------------|----------------|----------------|----------------|  1
|-----------------|----------------|----------------|6---5---4---3---|
|-2222111144444444|2222111133333333|2222111100000000|4---3---2---1---|
pm						     .   .   .   .   |
|		  |		   |		    |		     |
|-----------------|----------------|----------------|----------------|
|-----------------|----------------|----------------|----------------|
|-----------------|----------------|----------------|----------------| Gtr.
|-----------------|----------------|----------------|----------------|  2
|-6---------------|5---------------|4---------------|6---5---4---3---|
|-4---------------|3---------------|2---------------|4---3---2---1---|
pm						     .   .   .   .


RIFF 2b (5x)
|-----------------|----------------|----------------|----------------|
|-----------------|----------------|----------------|----------------|
|-----------------|----------------|----------------|----------------|
|-----------------|----------------|----------------|----------------|
|-----------------|----------------|----------------|6---5---4---3---|
|-2222111144444444|2222111133333333|2222111100000000|4---3---2---1---|
pm						     .   .   .   .


Repeat RIFF 1 (2x)

Repeat RIFF 2b (4x)


RIFF 3a
|-----------------|----------------|
|-----------------|----------------|
|-----------------|----------------| Gtr.
|-----------------|----------------|  1
|-2---2-2-4\3-4\3-|2---2-2-4-3-5-4-|
|-0---0-0-2\1-2\1-|0---0-0-2-1-3-2-|
pm    . .              . . . . . . |
|		  |		   |
|-----------------|----------------|
|-----------------|----------------|
|-----------------|----------------| Gtr.
|-----------------|----------------|  2
|-2---------------|--------4-3-5-4-|
|-0---------------|--------2-1-3-2-|
pm			   . . . .


RIFF 3b (4x)
|-----------------|----------------|
|-----------------|----------------|
|-----------------|----------------|
|-----------------|----------------|
|-2---2-2-4\3-4\3-|2---2-2-4-3-5-4-|
|-0---0-0-2\1-2\1-|0---0-0-2-1-3-2-|
pm    . .              . . . . . .


RIFF 3c
|-----------------|----------------|
|-----------------|----------------|
|-----------------|----------------|
|-----------------|----------------|

|-2---2-2-4\3-4\3-|2\\\------------|
|-0---0-0-2\1-2\1-|0\\\------------|
pm    . .


Repeat RIFF 3b (3x)

Repeat RIFF 3c

Repeat RIFF 3b (4x)

Repeat RIFF 2a

Repeat RIFF 2b (5x)


FILL
|-----------------|----------------|
|-----------------|----------------|
|-----------------|----------------|
|-----------------|----------------|
|-6---5---4---3---|2---------------|
|-4---3---2---1---|0---------------|
pm.   .   .   .



Important: The song above is NOT stored on the Chordie server. The original song is hosted at www.xguitar.com. Chordie works as a search engine and provides on-the-fly formatting. Chordie does not index songs against artists/composers will. To remove this song please click here.

This song is displayed as text-only. Transposing and tuning is only available for chordpro-songs.

Login - add to songbook

Rating click stars to rate

Layout
Accuracy

SHARE PAGE  

You need to log in to post comments