Chordie logo


The Bloodseekers    Mortician



MORTICIAN - THE BLOODSEEKERS
                      From the Album - DARKEST DAY OF HORROR
                              Copyright: Relapse 2002

Tabbed by: Bobby Rafuse (metal_music69@hotmail.com)

Tuning - 4 1/2 steps down (Gb)

*NOTE* I'm too lazy right now to write down structure but it's pretty easy
       to follow if you listen to the song.


RIFF 1a (after bass slide)
|-----------------|----------------|
|-----------------|----------------|
|-----------------|----------------|
|-------5-------4-|------5---------|
|-4-3-6-3-4-3-6-2-|4-3-6-3-6-5-543-|
|-2-1-4---2-1-4---|2-1-4---4-3-321-|
pm. . . . . . . .  . . . . . . ...


RIFF 2
|-----------------|----------------|----------------|----------------|
|-----------------|----------------|----------------|----------------|
|-----------------|----------------|----------------|----------------|
|-------------5---|------------4---|------------5---|----------------|
|-4---3---6---3---|4---3---6---2---|4---3---6---3---|6---5---5-4-3---|
|-2---1---4-------|2---1---4-------|2---1---4-------|4---3---3-2-1---|
pm.   .   .   .    .   .   .   .    .   .   .   .    .   .   . . .


RIFF 3
|-----------------|----------------|
|-----------------|----------------|
|-----------------|----------------|
|-----------------|----------------|
|-------33------22|------33--------|
|-221144--221144--|221144--44333211|


RIFF 1b
|-----------------|----------------|
|-----------------|----------------|
|-----------------|----------------| Gtr.
|-------5-------4-|------5---------|  1
|-4-3-6-3-4-3-6-2-|4-3-6-3-6-5-543-|
|-2-1-4---2-1-4---|2-1-4---4-3-321-|
pm. . . . . . . .  . . . . . . ... |
|                 |                |
|-----------------|----------------|
|-----------------|----------------|
|-----------------|----------------| Gtr.
|-----------------|----------------|  2
|-4-------3-------|6-------5---543-|
|-2-------1-------|4-------3---321-|
pm.       .        .       .   ...


END FILL
|-----------------|
|-----------------|
|-----------------|
|-----------------|
|-2---------------|


Important: The song above is NOT stored on the Chordie server. The original song is hosted at www.xguitar.com. Chordie works as a search engine and provides on-the-fly formatting. Chordie does not index songs against artists/composers will. To remove this song please click here.

This song is displayed as text-only. Transposing and tuning is only available for chordpro-songs.

Login - add to songbook

Rating click stars to rate

Layout
Accuracy

SHARE PAGE  




You need to log in to post comments