Chordie logo

Taste for Blood    Mortician



MORTICIAN - TASTE FOR BLOOD
                      From the Album - DARKEST DAY OF HORROR
                             Copyright - Relapse 2003
                            Version 1.0 - Dec 12, 2003

Tabbed by: Bobby Rafuse

For Questions, Comments, Newest Version, or Corrections contact
 Bobby at: metal_music69@hotmail.com

TAB NOTATION:
 ________________
|		 |
| tr - Trill     |
| pm - Palm Mute |
|________________|

Tuning - 4 1/2 steps down

*NOTE* Some riffs may not be 100% right but bear with me. Anyone who knows Mortician
  knows that lots of those LOW notes are hard to hear but I tried my best to get it.


RIFF 1a (3x) (after.."First to death, Then for dinner")
|-----------------|----------------|
|-----------------|----------------|
|-----------------|----------------|
|-----------------|----------------|
|-5---4-------3---|----2-----------|
|-3---2-------1---|----0-----------|


RIFF 1b
|-----------------|----------------|
|-----------------|----------------|
|-----------------|----------------|
|-----------------|----------------|
|-5---4-------3---|----3tr4--------|
|-3---2-------1---|----------------|


Repeat RIFF 1a 3x

Repeat RIFF 1b

Repeat RIFF 1a 3x

Repeat RIFF 1b


RIFF 2a (3x)
|-----------------|----------------|
|-----------------|----------------|
|-----------------|----------------|
|-----------------|----------------|
|-----------------|----------------|
|-3333222222221111|1111000000000000|


RIFF 2b
|-----------------|----------------|
|-----------------|----------------|
|-----------------|----------------|
|-----------------|----------------|
|-----------------|----3tr4--------|
|-3333222222221111|1111------------|


Repeat RIFF 2a 3x

Repeat RIFF 2b

Repeat RIFF 1a 3x

Repeat RIFF 1b

Repeat RIFF 1a 3x

Repeat RIFF 1b


RIFF 3a (3x)
|-----------------|----------------|
|-----------------|----------------|
|-----------------|----------------|
|-----------------|----------------|
|-5---4---4---3---|3---2---2---2---|
|-3---2---2---1---|1---0---0---0---|
pm.   .   .   .    .   .   .   .


RIFF 3b
|-----------------|----------------|
|-----------------|----------------|
|-----------------|----------------|
|-----------------|----------------|
|-5---4---4---3---|3---3tr4--------|
|-3---2---2---1---|1---------------|
pm.   .   .   .    .


Repeat RIFF 3a 3x


Repeat RIFF 3b

Repeat RIFF 1a 3x

Repeat RIFF 1b

Repeat RIFF 2a 3x

Repeat RIFF 2b

Repeat RIFF 2a 3x

Repeat RIFF 2b


RIFF 4a (3x)
|-----------------|----------------|
|-----------------|----------------|
|-----------------|----------------|
|-----------------|----------------|
|-5---4-------3---|----2-----------|
|-3---2-------1---|----0-----------|
pm.   .       .        .


RIFF 4b
|-----------------|----------------|
|-----------------|----------------|
|-----------------|----------------|
|-----------------|----------------|
|-5---4-------3---|----3tr4--------|
|-3---2-------1---|----------------|
pm.   .       .




Important: The song above is NOT stored on the Chordie server. The original song is hosted at www.xguitar.com. Chordie works as a search engine and provides on-the-fly formatting. Chordie does not index songs against artists/composers will. To remove this song please click here.

This song is displayed as text-only. Transposing and tuning is only available for chordpro-songs.

Login - add to songbook

Rating click stars to rate

Layout
Accuracy

SHARE PAGE  

You need to log in to post comments