Guitar Tabs, Chords and Lyrics


Abolition    Mortician



Band:   MORTICIAN
Album:  HACKED UP FOR BARBEQUE
Song:   ABOLITION

Copyright (c)  RELAPSE  1996
Version 1.0 -  4-10-04

Transcribed By:  BestialWarrior
Email:           Bestialson2003@yahoo.com


.  - palm mute           /  - slide up to
\  - slide down to       ~  - vibrato
h  - hammer on           b  - Bend
p  - pull off            Suffixes for bend
t  - tap                 f  - full bend    h - half bend
ph - pinched harmonic    q  - quarter bend t - tap bend
*  - see comment         ^  - Hold bend    r release bend
x  - Stuccatto           ~  - vibrato bend
,  - slight palm mute    () - ghost note, sustained note
"  - tremolo note         - Trill
S  - Sustained Chord/Note

Tunning: Regular A Tuning.

Intro Riff.
|------||
|------||
|------||
|------||
|4--5--||
|2--3--||

Riff#1. Fast Tremolo Picking.(1X)           (Fill).
|------------------------|------------|------------------||
|------------------------|------------|------------------||
|------------------------|------------|------------------||
|------------------------|------------|------------------||
|"--"--"--"--"--"--"--"--|4--5--4--5--|4--5--4--5--4--5--||
|2--3--2--3--2--3--2--3--|2--3--2--3--|2--3--2--3--2--3--||

Riff#2.(4X)
|----------------------------||
|----------------------------||
|----------------------------||
|----------------------------||
|2~--1~---2-----------2------||
|---------0--0--0--0--0------||
             .  .  .  S

Transition A.
|---------||
|---------||
|---------||
|---------||
|2~--1~---||
|---------||

Repeat Intro
Repeat Riff#1.(1X)



Important: The song above is NOT stored on the Chordie server. The original song is hosted at www.xguitar.com. Chordie works as a search engine and provides on-the-fly formatting. Chordie does not index songs against artists/composers will. To remove this song please click here.

This song is displayed as text-only. Transposing and tuning is only available for chordpro-songs.

Login - add to songbook

Rating click stars to rate

Layout
Accuracy

SHARE PAGE  




You need to log in to post comments