Guitar Tabs, Chords and Lyrics


Apocalyptic Devastation    Mortician



Band:   MORTICIAN
Album:  HACKED UP FOR BARBEQUE
Song:   APOCALYPTIC DEVASTATION

Copyright (c)   RELAPSE  1996
Version 1.0 -   4-10-04

Transcribed By:  BestialWarrior
Email:           Bestialson2003@yahoo.com


.  - palm mute           /  - slide up to
\  - slide down to       ~  - vibrato
h  - hammer on           b  - Bend
p  - pull off            Suffixes for bend
t  - tap                 f  - full bend    h - half bend
ph - pinched harmonic    q  - quarter bend t - tap bend
*  - see comment         ^  - Hold bend    r release bend
x  - Stuccatto           ~  - vibrato bend
,  - slight palm mute    () - ghost note, sustained note
"  - tremolo note         - Trill
S  - Sustained Chord/Note.

Tunning: Regular A Tuning.

Riff#1. Moderate pace. (2X)                     (Fill).
|-----------------------------------------|-----|----||
|-----------------------------------------|-----|----||
|-----------------------------------------|-----|----||
|------------7--7--------------------6--6-|-----|----||
|5--5--4-----5--5--8--8--4--4--3-----4--4-|7--7-|-7--||
|3--3--2--0--------6--6--2--2--1--0-------|5--5-|-5--||
 .  .  .  .  .  .  .  .  .  .  .  .  .  .  .  .

Riff#2.(2X)*Only chord that rings is 5/7 in fill. (Fill).
|-------------------------------|-----------|---------||
|-------------------------------|-----------|---------||
|-------------------------------|-----------|---------||
|------------7--7---------------|----6--6---|6--6-----||
|5--5--4-----5--5--8-----4--4--3|----4--4--7|4--4--7--||
|3--3--2-----------6-----2--2--1|----------5|------5--||
                                             .  .  S

Riff#3.Fast tremolo picking.(3X)          (Fill).
|-----------------------------------|-----|-----||
|-----------------------------------|-----|-----||
|-----------------------------------|-----|-----||
|----------"-------------------"----|-----|-----||
|"----"----5----"----"----"----4----|"----|-----||
|3----2---------6----2----1---------|5----|5~---||

Repeat Riff#1.(2X)
Repeat Riff#2.(2X)
Repeat Riff#3.(3X)

Transition A.
|----------||
|----------||
|---/\-----||
|--/--\----||
|-/----\---||
|0------\--||
(Dive with Bar)

Riff#4.
   (Play 4X)         (Fill).
|---------------|----|----||
|---------------|----|----||
|---------------|----|----||
|---------------|----|----||
|----4--3-------|-5--|-p--||
|0-0-2--1--0--0-|-3--|3\1-||
 . . .  .  .  .

Repeat Riff#3.(3X)

End Chord.
|-||
|-||
|-||
|-||
|7||
|5||



Important: The song above is NOT stored on the Chordie server. The original song is hosted at www.xguitar.com. Chordie works as a search engine and provides on-the-fly formatting. Chordie does not index songs against artists'/composers' will. To remove this song please click here.

This song is displayed as text-only. Transposing and tuning is only available for chordpro-songs.

Login - add to songbook

Rating click stars to rate

Layout
Accuracy

SHARE PAGE  




You need to log in to post comments