Guitar Tabs, Chords and Lyrics


Eaten Alive By Maggots    Mortician



Band:   MORTICIAN
Album:  HACKED UP FOR BARBEQUE
Song:   EATEN ALIVE BY MAGGOTS

Copyright (c)  RELAPSE  1996
Version 1.0 -  4-11-04

Transcribed By:  BestialWarrior
Email:           Bestialson2003@yahoo.com


.  - palm mute           /  - slide up to
\  - slide down to       ~  - vibrato
h  - hammer on           b  - Bend
p  - pull off            Suffixes for bend
t  - tap                 f  - full bend    h - half bend
ph - pinched harmonic    q  - quarter bend t - tap bend
*  - see comment         ^  - Hold bend    r release bend
x  - Stuccatto           ~  - vibrato bend
,  - slight palm mute    () - ghost note, sustained note
"  - tremolo note         - Trill

Tunning: Regular A Tuning.

Riff#1. Fast Tremolo Picking.(8X)
|----------------------------||
|----------------------------||
|----------------------------||
|"---------------------------||
|2------"------"------"------||
|-------1------3------4------||

Riff#2.Moderate Pace/Slow/Slight Palm Mute.(4X)
|----------------------------------------------------------
|----------------------------------------------------------
|----------------------------------------------------------
|----------------------------------------------------------
|2--2--2--2--4--3--2--2--2--2--4--5--------2--2--2--2--4--3
|0--0--0--0--2--1--0--0--0--0--2--3--3~----0--0--0--0--2--1
 ,  ,  ,  ,        ,  ,  ,  ,  ,  ,        ,  ,  ,  ,

Riff#2. Continued..
|-------------------||
|-------------------||
|-------------------||
|-------------------||
|2--2--2--4----3----||
|0--0--0--2----1----||
 ,  ,  ,  ,    ,

Transition A.
|--||
|--||
|--||
|--||
|2-||
|0-||
 ,

Repeat Riff#1.(9X)



Important: The song above is NOT stored on the Chordie server. The original song is hosted at www.xguitar.com. Chordie works as a search engine and provides on-the-fly formatting. Chordie does not index songs against artists'/composers' will. To remove this song please click here.

This song is displayed as text-only. Transposing and tuning is only available for chordpro-songs.

Login - add to songbook

Rating click stars to rate

Layout
Accuracy

SHARE PAGE  




You need to log in to post comments