Guitar Tabs, Chords and Lyrics


Hacked Up For Barbecue    Mortician



Band:   MORTICIAN
Album:  HACKED UP FOR BARBEQUE
Song:   HACKED UP FOR BARBEQUE

Copyright (c)  RELAPSE  1996
Version 1.0 -  4-10-04

Transcribed By:  BestialWarrior
Email:           Bestialson2003@yahoo.com


.  - palm mute           /  - slide up to
\  - slide down to       ~  - vibrato
h  - hammer on           b  - Bend
p  - pull off            Suffixes for bend
t  - tap                 f  - full bend    h - half bend
ph - pinched harmonic    q  - quarter bend t - tap bend
*  - see comment         ^  - Hold bend    r release bend
x  - Stuccatto           ~  - vibrato bend
,  - slight palm mute    () - ghost note, sustained note
"  - tremolo note         - Trill
S  - Sustained Chord/note

Tunning: Regular A Tuning.

Riff#1.Moderate Pace/Slightly fast.(2X)
|--------------------------------||
|--------------------------------||
|--------------------------------||
|--------------------------------||
|--------3--------4--------6-----||
|0-0-0-0-1--0-0-0-2--0-0-0-4-3~--||
 . . . .    . . .    . . .

Riff#2.Moderate pace/Slightly fast.(2X)
|------------------------------------------------------||
|------------------------------------------------------||
|------------------------------------------------------||
|------------------------------------------------------||
|--------3------------6-------------4------------6-----||
|0-0-0-0-1----0-0-0-0-4-3~--0-0-0-0-2----0-0-0-0-4-3~--||
 . . . . S    . . . .       . . . . S    . . . .

Repeat Riff#1.(4X)
Repeat Riff#2.(2X)

Transition A.
|----------||
|----------||
|---/\-----||
|--/--\----||
|-/----\---||
|0------\--||
(Dive with Bar)

Riff#3. Fast Tremolo Picking!(8X)
|-------------------------||
|-------------------------||
|-------------------------||
|"--"--------"--"---------||
|4--3--"--"--2--1"--"--"--||
|------4--3---------2--1--||

Riff#4. Fast Tremolo Picking!(2X)
|-----------------------------------------------||
|-----------------------------------------------||
|-----------------------------------------------||
|------"--"--------"--"--------"--"--------4-4-3||
|"--"--2--1--"--"--2--1--"--"--2--1--"--"--2-2-1||
|4--3--------4--3--------4--3--------4--3-------||

Repeat Riff#3.(6X)

Riff#5. Moderate pace/Slightly fast.(10X)
|------------------------------||
|------------------------------||
|------------------------------||
|------------------------------||
|---------6--5-----------5--4--||
|0-0-0-0--4--3--0-0-0-0--3--2--||
 . . . .        . . . .

Riff#6. Moderate pace/Slightly fast.(3X)
|------------------------------||
|------------------------------||
|------------------------------||
|------------------------------||
|------------------------4--3--||
|0-0-0-0--3~----0-0-0-0--2--1--||
 . . . .        . . . .

Repeat Transition A.
Repeat Riff#3.(8X).
Repeat Riff#5.(5X).

Outro Riff.
|-----------------------------------||
|-----------------------------------||
|-----------------------------------||
|-----------------------------------||
|---------6--5----------------------||
|0-0-0-0--4--3--0-3-0-2-0-3-2-3-2--0||
 . . . .        . . . . . . . . .



Important: The song above is NOT stored on the Chordie server. The original song is hosted at www.xguitar.com. Chordie works as a search engine and provides on-the-fly formatting. Chordie does not index songs against artists'/composers' will. To remove this song please click here.

This song is displayed as text-only. Transposing and tuning is only available for chordpro-songs.

Login - add to songbook

Rating click stars to rate

Layout
Accuracy

SHARE PAGE  




You need to log in to post comments