Guitar Tabs, Chords and Lyrics


Inquisition (Burn With Me)    Mortician



Band:   MORTICIAN
Album:  HACKED UP FOR BARBEQUE
Song:   INQUISITION

Copyright (c)  RELAPSE  1996
Version 1.0 -  4-10-04

Transcribed By:  BestialWarrior
Email:           Bestialson2003@yahoo.com


.  - palm mute           /  - slide up to
\  - slide down to       ~  - vibrato
h  - hammer on           b  - Bend
p  - pull off            Suffixes for bend
t  - tap                 f  - full bend    h - half bend
ph - pinched harmonic    q  - quarter bend t - tap bend
*  - see comment         ^  - Hold bend    r release bend
x  - Stuccatto           ~  - vibrato bend
,  - slight palm mute    () - ghost note, sustained note
"  - tremolo note         - Trill

Tunning: Regular A Tuning.

Intro:* Slide doesn't have to be accurate.
|-------||
|-------||
|-------||
|-------||
|-------||
|12-\-1-||

Riff#1. Slow/Moderate pace. Slight Palm Muting.(3X)
|-------------------------------------------------------------||
|-------------------------------------------------------------||
|-------------------------------------------------------------||
|2--3------------------------2--3-----------------------------||
|0--1--2-2--4--3--2-2--5--6--0--1--2-2--4--3--2-2--5--6-------||
|------0-0--2--1--0-0--3--4--------0-0--2--1--0-0--3--4--3~---||
 ,  ,  , ,  ,  ,  , ,  ,  ,  ,  ,  , ,  ,  ,  , ,  ,  ,

Riff#2. Fast Tremolo Picking.(4X)
|--------------------||
|--------------------||
|--------------------||
|--------------------||
|"----"----"----"----||
|3----1----2----4----||

Riff#3. Moderately fast.(7X)
|-------------------------||
|-------------------------||
|-------------------------||
|-------------------------||
|-------------------------||
|0-0-0--1-1-1--2~---1~----||
 . . .  . . .

Repeat Riff#2.(4X)
Repeat Riff#1.(2X)

End Chord.
|-||
|-||
|-||
|2||
|0||
|-||



Important: The song above is NOT stored on the Chordie server. The original song is hosted at www.xguitar.com. Chordie works as a search engine and provides on-the-fly formatting. Chordie does not index songs against artists/composers will. To remove this song please click here.

This song is displayed as text-only. Transposing and tuning is only available for chordpro-songs.

Login - add to songbook

Rating click stars to rate

Layout
Accuracy

SHARE PAGE  




You need to log in to post comments