Chordie logo


Hell on Earth    Mortician



MORTICIAN - HELL ON EARTH
                       From the Album - ZOMBIE APOCALYPSE
                            Copyright - Relapse 1998
                           Version 1.0 - Jan 14, 2004

Tabbed by: Bobby Rafuse

For Questions, Comments, Newest Version, or Corrections contact
 Bobby at: metal_music69@hotmail.com

Tuning - 3 1/2 steps (A)


RIFF 1 (2x) "After 'We'll tear you're soul apart'..."
|-----------------|----------------|----------------|----------------|
|-----------------|----------------|----------------|----------------|
|-----------------|----------------|----------------|----------------|
|-----------------|----------------|----------------|----------------|
|-2-2-3-3-5-5-4-4-|6-6-5-5-7-7-8-8-|2-2-3-3-5-5-4-4-|6-6-5-5-7-------|
|-0-0-1-1-3-3-2-2-|4-4-3-3-5-5-6-6-|0-0-1-1-3-3-2-2-|4-4-3-3-5-6~----|
pm. . . . . . . .  . . . . . . . .  . . . . . . . .  . . . . .


FILL 1
|-----------------|
|-----------------|
|-----------------|
|-----------------|
|-2-------3-------|
|-0-------1-------|


RIFF 2a (3x)
|-----------------|----------------|----------------|
|-----------------|----------------|----------------|
|-----------------|----------------|----------------|
|-----------------|----------------|----------------|
|-----------------|----------------|2-------3-------|
|-0000000011111111|2222222211111111|0-------1-------|


RIFF 2b
|-----------------|----------------|----------------|----------------|
|-----------------|----------------|----------------|----------------|
|-----------------|----------------|----------------|----------------|
|-----------------|----------------|----------------|----------------|
|-----------------|----------------|2-------3-------|4-------3-------|
|-0000000011111111|2222222211111111|0-------1-------|2-------1-------|


Repeat RIFF 2a (3x)

Repeat RIFF 2b


RIFF 3a
|-----------------|----------------|----------------|----------------|
|-----------------|----------------|----------------|----------------|
|-----------------|----------------|----------------|----------------| Gtr.
|-----------------|----------------|----------------|----------------|  1
|-2-2-2-2-2-2-2-4-|3-2-2-2-2-------|2-2-2-2-2-2-2-4-|3-2-2-2-2-------|
|-0-0-0-0-0-0-0-2-|1-0-0-0-0-6~----|0-0-0-0-0-0-0-2-|1-0-0-0-0-1~----|
pm  . . . . . .      . . . .          . . . . . .      . . . .       |
|		  |		   |		    |		     |
|-----------------|----------------|----------------|----------------|
|-----------------|----------------|----------------|----------------|
|-----------------|----------------|----------------|----------------| Gtr.
|-----------------|----------------|----------------|----------------|  2
|(2)--------------|----------------|2-------------4-|3---------------|
|(0)--------------|----------------|0-------------2-|1---------1~----|


RIFF 3b (5x)
|-----------------|----------------|----------------|----------------|
|-----------------|----------------|----------------|----------------|
|-----------------|----------------|----------------|----------------|
|-----------------|----------------|----------------|----------------|
|-2-2-2-2-2-2-2-4-|3-2-2-2-2-------|2-2-2-2-2-2-2-4-|3-2-2-2-2-------|
|-0-0-0-0-0-0-0-2-|1-0-0-0-0-6~----|0-0-0-0-0-0-0-2-|1-0-0-0-0-1~----|
pm  . . . . . .      . . . .          . . . . . .      . . . .


FILL 2
|-----------------|----------------|
|-----------------|----------------|
|-----------------|----------------|
|-----------------|----------------|
|-2-------3-------|4-------3-------|
|-0-------1-------|2-------1-------|


Repeat RIFF 2a (3x)

Repeat RIFF 2b



Important: The song above is NOT stored on the Chordie server. The original song is hosted at www.xguitar.com. Chordie works as a search engine and provides on-the-fly formatting. Chordie does not index songs against artists/composers will. To remove this song please click here.

This song is displayed as text-only. Transposing and tuning is only available for chordpro-songs.

Login - add to songbook

Rating click stars to rate

Layout
Accuracy

SHARE PAGE  




You need to log in to post comments