Chordie logo


Zombie Apocalypse    Mortician



MORTICIAN - ZOMBIE APOCALYPSE
                      From the Album - ZOMBIE APOCALYPSE
                           Copyright: Relapse 1998
                          Version 2.0 - June 19, 2003

Tabbed By: Bobby Rafuse

For Questions, Comments, Newest Version, or Corrections contact
 Bobby at: metal_music69@hotmail.com

TAB NOTATION:
 __________________
|		   |
| ~  - vibrato     |
| pm - palm mute   |
| *  - see comment |
|__________________|

Tuning - 3 1/2 steps down (A)

*NOTE* Some riffs may not be 100% right but bear with me. Anyone who knows Mortician
  knows that lots of those LOW notes are hard to hear but I tried my best to get it.


RIFF 1 (4x)  (after.."The Dead Will Walk The Earth")
|-----------------|----------------|----------------|----------------|
|-----------------|----------------|----------------|----------------|
|-----------------|----------------|----------------|----------------|
|-----------------|----------------|----------------|----------------|
|-----2-2-2-2-2---|----2-2-2-2-2---|----2-2-2-2-2-2-|6-5-4---5-4-3---|
|-1~--0-0-0-0-0-1~|1~--0-0-0-0-0-1~|1~--0-0-0-0-0-0-|4-3-2---3-2-1---|
pm    . . . . .        . . . . .        . . . . . .


FILL
|-----|
|-----|
|-----|
|-----|
|-*---|
|-0---|

*Dive bar


RIFF 2 (3x)
|-----------------|----------------|----------------|----------------|-
|-----------------|----------------|----------------|----------------|-
|-----------------|----------------|----------------|----------------|-
|-----------------|----------------|----------------|----------------|-
|-----------------|----------------|----------------|----------------|-
|-2222111111111111|4444444444444444|3333333333333333|2222222222222222|-

|-----------------|----------------|----------------|----------------|
|-----------------|----------------|----------------|----------------|
|-----------------|----------------|----------------|----------------|
|-----------------|----------------|----------------|----------------|
|-----------------|----------------|----------------|----------------|
|-2222111111111111|4444444444444444|3333333333333333|0000000000000000|


RIFF 3 (2x)
|-----------------|----------------|----------------|----------------|
|-----------------|----------------|----------------|----------------|
|-----------------|----------------|----------------|----------------|
|-----------------|----------------|----------------|----------------|
|-4---3---6-------|5-------4-------|4---3---6-------|5-------2-------|
|-2---1---4-------|3-------2-------|2---1---4-------|3-------0-------|


Then play RIFF 2 (2x)

Then play RIFF 1 (5x)

Then play FILL

end.

IF ANYONE HAS ANY MORTICIAN TO REQUEST JUST EMAIL ME. I'M IN THE WORKS FOR SONGS OFF


Important: The song above is NOT stored on the Chordie server. The original song is hosted at www.xguitar.com. Chordie works as a search engine and provides on-the-fly formatting. Chordie does not index songs against artists/composers will. To remove this song please click here.

This song is displayed as text-only. Transposing and tuning is only available for chordpro-songs.

Login - add to songbook

Rating click stars to rate

Layout
Accuracy

SHARE PAGE  




You need to log in to post comments