Guitar Tabs, Chords and Lyrics


Raise Your Hands to Rock    Motley Crue


---------










D-|------2-------------------|-----3----------------------|


A-|-3----3------3--3-----3---|-----3----------------------|


F-|-2----2------2--2-----2---|-----0-------0------0-------|


C-|-0----0------0--0-----0---|-----0-----0------0---------|


G-|---------3---------3------|-----2---3------2-----------|


D-|--------------------------|-3---3-----------------3----|


D-|-----------|------------------------------ |---------------------------|


A-|-----------|------------------------------ |---------------------------|


F-|-2----2----|-------------7-------------7-- |---------------------------|


C-|-2----2----|--5/7--x--x--7--5/7--x--x--7--|-----------5------------ 3--|


G-|-0----0----|--3/5--x--x--5--3/5--x--x--5--|-3/5--x-x--5--3/5--x-x-- 3--|


D-|-----------|------------------------------|-1/3--x-x--3--1/3--x-x-- 1--|


D-|----------|------------|


A-|----------|------------|


F-|-2--------|--2---------|


C-|-2--------|--2---------|


G-|-0--------|--0---------|


D-|----------|------------|


D-|-----------|------------------------------------------------|


A-|------15b--|---15-14-----15-14------------------------------|


F-|------s.h.-|---------16--------16-14-13-12------------------|


C-|-----------|-------------------------------14-13-12---------|


G-|-----------|------------------------------------------------|


D-|-----------|------------------------------------------------|




       [1]      [1]                                                                     


D-|--------------------|----------------------------------------|
A-|--15b---15b~~~~15--|----------------------------------------|
F-|--------------------|----------------------------------------|
C-|--------------------|-------------------/14----14---17-14-17-|
G-|--------------------|-----------------------14---------------|
D-|--------------------|--15-14-15-17-15-17---------------------|




             [1]                         [1]           [1]                                 


D-|----------------------------|-------------------|
A-|----------------------------|-------------------|
F-|--------14b---r^12------|----14b--r^12--14b-|
C-|-14~~~~------------14-------|-14----------------|
G-|----------------------------|-------------------|
D-|----------------------------|-------------------|
D-|-14-15-16-15--14-15-14-12----12--14-15-14-12--------------|
A-|--------------------------14-----------------14-14b-------|
F-|----------------------------------------------------------|
C-|----------------------------------------------------------|
G-|----------------------------------------------------------|
D-|----------------------------------------------------------|




                           [1]                                                       


D-|---------------------------|------------------------------|
A-|-17-15-14------------------|------------------------------|
F-|----------16-15-14----14b--|---------7------7--9--7-------|
C-|-------------------14------|-7^9--9--7--7^9-7--9--7-------|
G-|---------------------------|-7^9--9-----7^9---------------|
D-|---------------------------|------------------------------|




             [1]              [1]                                                       


D-|--------17------------------|-----------------------------|
A-|--------20ub----------10----|-----------------------------|
F-|-2--2----------2--2---12ub--|---------7------7--9--7------|
C-|-2--2----------2--2---------|-7^9--9--7--7^9-7--9--7------|
G-|-0--0----------0--0---------|-7^9--9-----7^9--------------|
D-|----------------------------|-----------------------------|




     ½        ½                        1


                                                                                


D-|--------------------------------|------------|
A-|--------------------------------|-14b--------|
F-|--8-7-----------------------|------------|
C-|-----------8-7-6------------|------------|
G-|---------------------10-9-8-7-6-|------------|
D-|--------------------------------|------------|


Important: The song above is NOT stored on the Chordie server. The original song is hosted at www.xguitar.com. Chordie works as a search engine and provides on-the-fly formatting. Chordie does not index songs against artists'/composers' will. To remove this song please click here.

This song is displayed as text-only. Transposing and tuning is only available for chordpro-songs.

Login - add to songbook

Rating click stars to rate

Layout
Accuracy

SHARE PAGE  




You need to log in to post comments