Guitar Tabs, Chords and Lyrics


Smokin' in the Boys' Room    Motley Crue



Author/Artist: Motley Crue
Title: Smokin in the Boys Room
Album: Theater Of Pain
Transcribed by: Mike Goode
Email: drfeelgood_0@hotmail.com

--------------|----------------|---------------|----------------|-------------
--------------|----------------|---------------|----------------|-------------
-----------6--|--7----------6--|--7---------6--|--7----------6--|--7----------
-----------6--|--7----------6--|--7---------6--|--7----------6--|--7----------
-----------4--|--5----------4--|--5---------4--|--5----------4--|--5----------
--------------|----------------|---------------|----------------|-------------
    intro spoken  part Whoo!     YA ever have one of those days  ect.........

----|---------------|-----------------|-----------------|--------------|------
----|---------------|-----------------|-----------------|--------------|------
-6--|--7---------6--|--7------------6-|-7------------6--|--7---------6-|--7---
-6--|--7---------6--|--7------------6-|-7------------6--|--7---------6-|--7---
-4--|--5---------4--|--5------------4-|-5------------4--|--5---------4-|--5---
----|---------------|-----------------|-----------------|--------------|------
 ......................................................................

----------||---------------------|----------------------|-------------------|-
----------||---------------------|----------------------|-------------------|-
-------6--||*-7------------------|----------------------|-------------------|-
-------6--||*-7------------------|----------------------|-------------------|-
-------4--||--5------------------|-------------------7--|-8---------------7-|-
----------||---------------------|-------------------5--|-6---------------5-|-
 1 ver I'm sittin in the clasroom............................

------------------------|-----------------------|----------------------|------
------------------------|-----------------------|----------------------|------
--------------------6---|-7---------------------|----------------------|------
--------------------6---|-7---------------------|----------------------|------
-8------------------4---|-5---------------------|--------------------7-|-8----
-6----------------------|-----------------------|--------------------5-|-6----
--------------|-----------------------||------------------------|-------------
--------------|-----------------------||------------------------|-------------
--------------|---------------------6-||------------------------|-------------
--------------|---------------------6-||------------------------|-------------
------------7-|-8-------------------4-||-5--5--7--7--5--5--7--7-|-5--5--7--7--
------------5-|-6---------------------||-3--3--3--3--3--3--3--3-|-3--3--3--3--
                                         chorus

------------|------------------------|------------------------|---------------
------------|------------------------|------------------------|---------------
------------|------------------------|------------------------|---------------
------------|-7--7--9--9--7--7--9--9-|-7--7--9--9--7--7--9--9-|---------------
-5--5--7--7-|-5--5--5--5--5--5--5--5-|-5--5--5--5--5--5--5--5-|-7--7--9--9----
-3--3--3--3-|------------------------|------------------------|-5--5--5--5----
------------|------------------------|------------------------|---------------
------------|------------------------|------------------------|-3-------------
------------|------------------------|------------------------|-0-------------
------------|------------------------|------------------------|-0-------------
-7--7--9--9-|-5--5--7--7--5--5--7--7-|-7--7--9--9--7--7--9--9-|---------------
-5--5--5--5-|-3--3--3--3--3--3--3--3-|-5--5--5--5--5--5--5--5-|-3-------------
----|--------------------|------------------------||----------------------|---
----|--------------------|------------------------||----------------------|---
-6--|-7----------------6-|-7-------------------6-*||---7------------------|---
-6--|-7----------------6-|-7-------------------6-*||---7------------------|---
-4--|-5----------------4-|-5-------------------4--||---5------------------|---
----|--------------------|------------------------||----------------------|---
             repeat everything you just played 4 2nd verse      hey  can

--------------||-------------------------|------------------------|-----------
--------------||-------------------------|------------------------|-----------
--------------||-------------------------|------------------------|-----------
--------------||-------------------------|------------------------|-7--7--9---
--------------||--5--5--7--7--5--5--7--7-|-5--5--7--7--5--5--7--7-|-5--5--5---
--------------||--3--3--3--3--3--3--3--3-|-3--3--3--3--3--3--3--3-|-----------
 I be excused      Harmonica solo     palm mute..............................

---------------|-------------------------|------------------------|-----------
---------------|-------------------------|------------------------|-----------
---------------|-------------------------|------------------------|-----------
-9--7--7--9--9-|-7--7--9--9--7--7--9--9--|------------------------|-----------
-5--5--5--5--5-|-5--5--5--5--5--5--5--5--|-5--5--7--7--5--5--7--7-|-5--5--7---
---------------|-------------------------|-3--3--3--3--3--3--3--3-|-3--3--3---
 ............................................................................

---------------|-------------------------|------------------------|-----------
---------------|-------------------------|------------------------|-----------
---------------|-------------------------|------------------------|-----------
---------------|-------------------------|------------------------|-----------
-7--5--5--7--7-|-7--7--9--9--7--7--9--9--|-7--7--9--9--7--7--9--9-|-5--5--7---
-3--3--3--3--3-|-5--5--5--5--5--5--5--5--|-5--5--5--5--5--5--5--5-|-3--3--3---
 .............                                           solo starts

---------------|-------------------------|------------------------|-----------
---------------|-------------------------|------------------------|-----------
---------------|-------------------------|------------------------|-----------
---------------|-------------------------|-7--7--9--9--7--7--9--9-|-7--7--9---
-7--5--5--7--7-|-5--5--7--7--5--5--7--7--|-5--5--5--5--5--5--5--5-|-5--5--5---
-3--3--3--3--3-|-3--3--3--3--3--3--3--3--|------------------------|-----------
---------------|-------------------------|------------------------|-----------
---------------|-------------------------|------------------------|-----------
---------------|-------------------------|------------------------|-----------
-9--7--7--9--9-|-------------------------|------------------------|-----------
-5--5--5--5--5-|-5--5--7--7--5--5--7--7--|-5--5--7--7--5--5--7--5-|-7--7--9---
---------------|-3--3--3--3--3--3--3--3--|-3--3--3--3--3--3--3--3-|-5--5--5---
---------------|-------------------------|------------------------|-----------
---------------|-------------------------|------------------------|-----------
---------------|-------------------------|------------------------|-----------
---------------|-------------------------|------------------------|-----------
-9--7--7--9--9-|-7--7--9--9--7--7--9--9--|-5--5--7--7--5--5--7--7-|-5--5--7---
-5--5--5--5--5-|-5--5--5--5--5--5--5--5--|-3--3--3--3--3--3--3--3-|-3--3--3---
---------------|-------------------------|------------------------|-----------
---------------|-------------------------|------------------------|-----------
---------------|-------------------------|------------------------|-----------
---------------|-7--7--9--9--7--7--9--9--|-7--7--9--9--7--7--9--9-|-----------
-7--5--5--7--7-|-5--5--5--5--5--5--5--5--|-5--5--5--5--5--5--5--5-|-5--5--7---
-3--3--3--3--3-|-------------------------|------------------------|-3--3--3---
---------------|-------------------------|------------------------------------
---------------|-------------------------|------------------------------------
---------------|-------------------------|------------------------------------
---------------|-------------------------|------------------------------------
-7--5--5--7--7-|-5--5--7--7--5--5--7--7--|------------------------------------
-3--3--3--3--3-|-3--3--3--3--3--3--3--3--|------------------------------------
                                                 this is pretty much all of

------------------------------------------------------------------------------
------------------------------------------------------------------------------
------------------------------------------------------------------------------
------------------------------------------------------------------------------
------------------------------------------------------------------------------
------------------------------------------------------------------------------
 the song not real sure on how the solo goes so if any one wants to try and

------------------------------------------------------------------------------
------------------------------------------------------------------------------
------------------------------------------------------------------------------
------------------------------------------------------------------------------
------------------------------------------------------------------------------
------------------------------------------------------------------------------


Important: The song above is NOT stored on the Chordie server. The original song is hosted at www.xguitar.com. Chordie works as a search engine and provides on-the-fly formatting. Chordie does not index songs against artists/composers will. To remove this song please click here.

This song is displayed as text-only. Transposing and tuning is only available for chordpro-songs.

Login - add to songbook

Rating click stars to rate

Layout
Accuracy

SHARE PAGE  




You need to log in to post comments