Chordie logo


Wild Side    Motley Crue






Song: Wild Side
Artist: Motley Crue
Album: Girls Girls Girls (1987)
Tabbed by jrob (jrobcap@hotmail.com)

Tuned down 1 Whole step- DCGFAD

This is my first tab, but hey “excuses are like assholes, everyone has one
and they always stink”

		    [	Riff 1
D|-----------------|------------------------------|-------------------------|
A|-----------------|------------------------------|----------------8--8~-7--|
F|-----------------|---5---5-4-----5-----5----5/7-|---5---5-4------7--7--7--|
G|-----------------|---5---5-4-----5-----5~---5/7-|---5---5-4------7--7--7--|
C|-----0*----------|-0---------0-0---0-0---0-0----|-0---------0-0-----------|
D|-----------------|------------------------------|-------------------------|
    *prebend with bar
				   ]
|--------------------------------|
|--(7)--7-------8p7--------------|
|--(7)-----7---------7-----------|
|--(7)---------------------------|
|--------------------------------|
|--------------------------------|
Riff 1 x4

[   Riff 2	(32 sixteenth notes)				      ]
|--------------------------------|---------------------------------|
|--------------------------------|---------------------------------|
|--------------------------------|---------------------------------|
|--------------------------------|---------------------------------|
|0-0-0-0-0-0-0-0-0-0-0-0-0-0-0-0-|-0-0-0-0-0-0-0-0-0-0-0-0-0-0-0-0-|
|--------------------------------|---------------------------------|

Riff 2 x1

Verse:
[     verse								       ]
|--------|---------|---------|---------|---------|---------|----------------|
|--------|---------|---------|---------|---------|---------|-----8p7---8p7--|
|-9---7--|--9---7--|--7---5--|--9---7--|--9---7--|--7---5--|-9------7-----7-|
|-7---7--|--7---7--|--5---5--|--7---7--|--7---7--|--5---5--|-7--------------|
|--------|---------|---------|---------|---------|---------|----------------|
|--------|---------|---------|---------|---------|---------|----------------|
Verse x1
Riff 1(Chorus)x2
Riff 2 x1
Verse  x1
Riff 1(Chorus) x1 then Riff 3 (x1)

[   Riff 3
|------------------------------|-------------------------|------------------|
|------------------------------|----------------8--8—-7--|-(7)------8--8--7-|
|---5---5-4-----5-----5----5/7-|---5---5-4------7--7--7--|-(7)------7--7--7-|
|---5---5-4-----5-----5—---5/7-|---5---5-4------7--7--7--|-(7)------7--7--7-|
|-0---------0-0---0-0---0-0----|-0---------0-0-----------|------------------|
|------------------------------|-------------------------|------------------|

				   ]
|--------------|-----------------|
|-(7)----------|-----------------|
|-(7)-----5----|--(5)------------|
|-(7)-----3----|--(3)------------|
|---------3----|--(3)------------|
|--------------|-----------------|
[    Bridge								     ]
|----------------|-------------------|------------------|-----------------|
|----------------|-------------------|------------------|-----------------|
|------5--7------|--------7--5-------|--------5--2------|-------5--2------|
|------5--7------|--------7—-5-------|--------5--2------|-------5--2------|
|--0----------0--|--0-0-----------0--|--0-0----------0--|--0-0---------0--|
|----------------|-------------------|------------------|-----------------|

Bridge x3

[ Riff 4								     ]
|---------------|----------------|--------------|-------------------------|
|---------------|----------------|--------------|-------------------------|
|------5--7-----|-(7)-----7--5---|-(5)---5--2---|-(2)---------------------|
|------5--7-----|-(7)-----7--5---|-(5)---5--2---|-(2)---------------------|
|--0------------|------0---------|-----0----0---|-(0)---------------------|
|---------------|----------------|--------------|-------------------------|

Riff 4 x1
Riff 1 x4
Riff 2 x1
Verse  x1
Riff 1 x2

[       Riff 5								     ]
|--------------------------------|-------------------|--------------------|
|--------------------------------|----------8--8--7--|-(7)--7-----8p7-----|
|--------------------------------|----------7--7--7--|-(7)-----7------7---|
|--------------------------------|----------7--7--7--|-(7)----------------|
|0-0-0-0-0-0-0-0-0-0-0-0-0-0-0-0-|-0-0-0-0-----------|--------------------|
|--------------------------------|-------------------|--------------------|

Riff 5 x2

[  Riff 6 		        ]
|------------------------------|
|------------------------------|
|---5---5-4-----5-----5----5/7-|
|---5---5-4-----5-----5~---5/7-|
|-0---------0-0---0-0---0-0----|
|------------------------------|

Riff 6 x3

[       Riff 7                                                            ]
|-----------------------------|------------------|-------------|----------|
|--------------------8--8--7--|-(7)-----8--8--7--|-(7)---------|----------|
|----5---5-4---------7--7--7--|-(7)-----7--7--7--|-(7)---5-----|-(5)------|
|----5---5-4---------7--7--7--|-(7)-----7--7--7--|-(7)---5-----|-(5)------|
|-0-----------0--0------------|------------------|-------3-----|-(3)------|
|-----------------------------|------------------|-------------|----------|

Riff 7 x1
Bridge x4


Important: The song above is NOT stored on the Chordie server. The original song is hosted at www.xguitar.com. Chordie works as a search engine and provides on-the-fly formatting. Chordie does not index songs against artists/composers will. To remove this song please click here.

This song is displayed as text-only. Transposing and tuning is only available for chordpro-songs.

Login - add to songbook

Rating click stars to rate

Layout
Accuracy

SHARE PAGE  




You need to log in to post comments