Chordie logo


Fake    Motley Crue



fake
motley crue

/- slide up
\\- slide down
b- bend
PM- palm mute
x- pick mute
br- bend release


d tuning- DAFCGD

intro                  strum strings in front of the 1st fret and neck, low to high
d---------------------------------|-------------------------
a---------------------------------|-------------------------
f---------------------------------|-------------------------
c--7\\----------------------------|-------------------------
g--7\\----2-2---2-2---2-2---2-2---|---2-2---2-2---2-2---2-2-
d--5\\----0-0---0-0---0-0---0-0-\\|/--0-0---0-0---0-0---0-0-

"fake"  "fake"  "fake"
d----------------------------
a----------------------------
f----------------------------
c------------------------7---
g--2-2---2-2---2-2--x-x--5-7-
d--0-0---0-0---0-0--x-x----5-

"fake"  "fake"  "fake"
d----------------------------
a----------------------------
f----------------------------
c------------------------7---
g--2-2---2-2---2-2--x-x--5-7-
d--0-0---0-0---0-0--x-x----5-

verse
d----------------------------
a----------------------------
f----------------------------
c------------------------7---
g--2-2---2-2---2-2--x-x--5-7-
d--0-0---0-0---0-0--x-x----5-

d---------------------------
a---------------------------
f---------------------------
c---------------------------
g--2-2---2-2---2-2--x-x-7-7-
d--0-0---0-0---0-0--x-x-5-5-

    PM--------|
d-------------------------
a-------------------------
f-------------------------
c-------------------------
g--/12-12-12-12-12--7-7-7-
d--/10-10-10-10-10--5-5-5-

d-----------------------------------------
a-----------------------------------------
f--------2b-------2b-------2b-------2br-0-
c-----------------------------------------
g--\\2-2-----2-2------2-2------2-2--------
d--\\0-0-----0-0------0-0------0-0--------

verse
d----------------------------
a----------------------------
f----------------------------
c------------------------7---
g--2-2---2-2---2-2--x-x--5-7-
d--0-0---0-0---0-0--x-x----5-

d---------------------------
a---------------------------
f---------------------------
c---------------------------
g--2-2---2-2---2-2--x-x-7-7-
d--0-0---0-0---0-0--x-x-5-5-

    PM--------|
d-------------------------
a-------------------------
f-------------------------
c-------------------------
g--/12-12-12-12-12--7-7-7-
d--/10-10-10-10-10--5-5-5-

chorus
d-----------------------------------------------------------
a-----------------------------------------------------------
f--------------------------2-2--------------------5555-7777-
c--\\2-2-------------------2-2--------------------5555-7777-
g--\\2-2-------------------0-0--0-3-0--5-5-5------3333-5555-
d--\\0-0--0-3-0--5-5-5--3---------------------5-------------

d-----------------------------------------------------------------
a-----------------------------------------------------------------
f------------------------2-2-------------------5555--7777-7-------
c--2-2-------------------2-2-------------------5555--7777-7--7--2-
g--2-2-------------------0-0--0-3-0--5-5-5-----3333--5555-5--7--2-
d--0-0--0-3-0--5-5-5--3---------------------5----------------5--0-

d---------------------------------------
a---------------------------------------
f------2b-------2b-------2b-------2br-0-
c---------------------------------------
g--2-2-----2-2------2-2------2-2--------
d--0-0-----0-0------0-0------0-0--------

verse
d----------------------------
a----------------------------
f----------------------------
c------------------------7---
g--2-2---2-2---2-2--x-x--5-7-
d--0-0---0-0---0-0--x-x----5-

d---------------------------
a---------------------------
f---------------------------
c---------------------------
g--2-2---2-2---2-2--x-x-7-7-
d--0-0---0-0---0-0--x-x-5-5-

    PM--------|
d-------------------------
a-------------------------
f-------------------------
c-------------------------
g--/12-12-12-12-12--7-7-7-
d--/10-10-10-10-10--5-5-5-

chorus
d-----------------------------------------------------------
a-----------------------------------------------------------
f--------------------------2-2--------------------5555-7777-
c--\\2-2-------------------2-2--------------------5555-7777-
g--\\2-2-------------------0-0--0-3-0--5-5-5------3333-5555-
d--\\0-0--0-3-0--5-5-5--3---------------------5-------------

d-----------------------------------------------------------------
a-----------------------------------------------------------------
f------------------------2-2-------------------5555--7777-7-------
c--2-2-------------------2-2-------------------5555--7777-7--7--2-
g--2-2-------------------0-0--0-3-0--5-5-5-----3333--5555-5--7--2-
d--0-0--0-3-0--5-5-5--3---------------------5----------------5--0-

d---------------------------------------
a---------------------------------------
f------2b-------2b-------2b-------2br-0-
c---------------------------------------
g--2-2-----2-2------2-2------2-2--------
d--0-0-----0-0------0-0------0-0--------

verse
d----------------------------
a----------------------------
f----------------------------
c------------------------7---
g--2-2---2-2---2-2--x-x--5-7-
d--0-0---0-0---0-0--x-x----5-

d---------------------------
a---------------------------
f---------------------------
c---------------------------
g--2-2---2-2---2-2--x-x-7-7-
d--0-0---0-0---0-0--x-x-5-5-

    PM--------|
d-------------------------
a-------------------------
f-------------------------
c-------------------------
g--/12-12-12-12-12--7-7-7-
d--/10-10-10-10-10--5-5-5-

chorus
d-----------------------------------------------------------
a-----------------------------------------------------------
f--------------------------2-2--------------------5555-7777-
c--\\2-2-------------------2-2--------------------5555-7777-
g--\\2-2-------------------0-0--0-3-0--5-5-5------3333-5555-
d--\\0-0--0-3-0--5-5-5--3---------------------5-------------

d-------------------------------------------------------------------
a-------------------------------------------------------------------
f------------------------2-2-------------------5555--7777--77-------
c--2-2-------------------2-2-------------------5555--7777--77--5--2-
g--2-2-------------------0-0--0-3-0--5-5-5-----3333--5555--55--5--2-
d--0-0--0-3-0--5-5-5--3---------------------5------------------3--0-


bridge- to come soon


solo
d------------------------------------------------------------------------------------------------------------
a------------------------------------------------------------------------------------------------------------
f--19--19-19-18--18-18-17--17-17-16--16-16-15--16b-12b---19--19-19-18--18-18-17--17-17-16--16-16-15--16b-12b-
c------------------------------------------------------------------------------------------------------------
g------------------------------------------------------------------------------------------------------------
d------------------------------------------------------------------------------------------------------------

more to come...


chorus out-



Important: The song above is NOT stored on the Chordie server. The original song is hosted at www.xguitar.com. Chordie works as a search engine and provides on-the-fly formatting. Chordie does not index songs against artists/composers will. To remove this song please click here.

This song is displayed as text-only. Transposing and tuning is only available for chordpro-songs.

Login - add to songbook

Rating click stars to rate

Layout
Accuracy

SHARE PAGE  




You need to log in to post comments