Chordie logo


Hell on High Heels    Motley Crue



hell on high heels
motley crue

\- slide up
/- slide down
^- use bar

intro- x6                                                                        
---------------------------------------------------
-------------------------------8--------7----------
---------------------7---------7--------7----------
--\--------7---------7---------5--------5----------
--\--------7---------5---------------------0--3--4-
--\--------5---------------------------------------

verse                                                                        
---------------------------------------------------
---------------------------------------------------
--5-------------------------5----------------------
--5-------------------------5----------------------
--3------------3------------3-----------3----------
-----0--2--3-----0--2--3-------0--2--3-----0--2--3-
  
------------------------------------------
----------------------8--------7----------
------------7---------7--------7----------
--7---------7---------5--------5----------
--7---------5---------------------0--3--4-
--5---------------------------------------

------------------------------------------
----------------------8--------7----------
------------7---------7--------7----------
--7---------7---------5--------5----------
--7---------5---------------------0--3--4-
--5---------------------------------------

------------------------------------------
----------------------8--------7----------
------------7---------7--------7----------
--7---------7---------5--------5----------
--7---------5---------------------0--3--4-
--5---------------------------------------
                                                                      
------------------------------------------
----------------------8--------7----------
------------7---------7--------7----------
--7---------7---------5--------5----------
--7---------5---------------------0--3--4-
--5---------------------------------------                                                         
--------------------------------------------------
--------------------------------------------------
--5------------------------5----------------------
--5------------------------5----------------------
--3-----------3------------3-----------3----------
-----0--2--3-----0--2--3------0--2--3-----0--2--3-

------------------------------------------
----------------------8--------7----------
------------7---------7--------7----------
--7---------7---------5--------5----------
--7---------5---------------------0--3--4-
--5---------------------------------------

------------------------------------------
----------------------8--------7----------
------------7---------7--------7----------
--7---------7---------5--------5----------
--7---------5---------------------0--3--4-
--5---------------------------------------

------------------------------------------
----------------------8--------7----------
------------7---------7--------7----------
--7---------7---------5--------5----------
--7---------5---------------------0--3--4-
--5---------------------------------------

------------------------------------------
----------------------8--------7----------
------------7---------7--------7----------
--7---------7---------5--------5----------
--7---------5---------------------0--3--4-
--5---------------------------------------

pre chorus              
----------------------------------------------------------------------
----------------------------------------------------------------------
--7-------------------------7-----------------------------------------
--7------------7------------7---------------7-------------------------
--5------------7------------5---------------7-------------------------
------0--2--0--5--0--2--0--------0--2--0----5-----0--2--0--5--0--2--0- 

-------------------------------------------------------------------------
-------------------------------------------------------------------------
--7-------------------------7--------------------------------------------
--7------------7------------7---------------7--------------------------2-
--5------------7------------5---------------7--------------------------2-
------0--2--0--5--0--2--0--------0--2--0----5-----0--2--0--5--0--2--0--0-

chorus                          
--------------------------------------------------------------------------
--------------------------------------------------------------------------
--9--9--------------------------------------------------------------------
--9--9------7--7------4--5---4--5-----4--7---------------------------7--7-
--7--7------7--7------4--5---4--5-----4--7---------------------------7--7-
------------5--5------2--3---2--3-----2--5---0--2--0--5--0--2--0-----5--5-   

-----------------------------
-----------------------------
-----------------------------
--4--5------4--5--------4--7-
--4--5------4--5--------4--7-
--2--3------2--3--------2--5-

------------------------------------------
----------------------8--------7----------
------------7---------7--------7----------
--7---------7---------5--------5----------
--7---------5---------------------0--3--4-
--5---------------------------------------

------------------------------------------
----------------------8--------7----------
------------7---------7--------7----------
--7---------7---------5--------5----------
--7---------5---------------------0--3--4-
--5---------------------------------------

------------------------------------------
----------------------8--------7----------
------------7---------7--------7----------
--7---------7---------5--------5----------
--7---------5---------------------0--3--4-
--5---------------------------------------

------------------------------------------
----------------------8--------7----------
------------7---------7--------7----------
--7---------7---------5--------5----------
--7---------5---------------------0--3--4-
--5---------------------------------------                                                                       
verse                                                               
--------------------------------------------------
--------------------------------------------------
--5-------------------------5---------------------
--5-------------------------5---------------------
--3-----------3-------------3-----------3---------
-----0--2--3-----0--2--3-------0--2--3----0--2--3-

------------------------------------------
----------------------8--------7----------
------------7---------7--------7----------
--7---------7---------5--------5----------
--7---------5---------------------0--3--4-
--5---------------------------------------

------------------------------------------
----------------------8--------7----------
------------7---------7--------7----------
--7---------7---------5--------5----------
--7---------5---------------------0--3--4-
--5---------------------------------------

----------------------------------------------------
----------------------------------------------------
--5-------------------------5-----------------------
--5-------------------------5-----------------------
--3-----------3-------------3------------3----------
-----0--2--3-----0--2--3--------0--2--3-----0--2--3-

------------------------------------------
----------------------8--------7----------
------------7---------7--------7----------
--7---------7---------5--------5----------
--7---------5---------------------0--3--4-
--5---------------------------------------

------------------------------------------
----------------------8--------7----------
------------7---------7--------7----------
--7---------7---------5--------5----------
--7---------5---------------------0--3--4-
--5---------------------------------------

pre chorus                
-----------------------------------------------------------------------
-----------------------------------------------------------------------
--7--------------------------7-----------------------------------------
--7--------------7-----------7---------------7-------------------------
--5--------------7-----------5---------------7-------------------------
-----0--2--0-----5--0--2--0-------0--2--0----5-----0--2--0--5--0--2--0-
    
---------------------------------------------------------------
---------------------------------------------------------------
------------------7--------------------------------------------
--7---------------7---------------7--------------------------2-
--7---------------5---------------7--------------------------2-
--5----0--2--0---------0--2--0----5-----0--2--0--5--0--2--0--0-
                                                                        
chorus                       
------------------------------------------------------------------------
------------------------------------------------------------------------
--9--9------------------------------------------------------------------
--9--9--------7--7-------4--5-----4--5-----4--7-------------------------
--7--7--------7--7-------4--5-----4--5-----4--7-------------------------
--------------5--5-------2--3-----2--3-----2--5-----0--2--0--5--0--2--0-
                                                                        
--------------------------------------------------------------------
--------------------------------------------------------------------
--------------------------------------------------------------------
--7--7-----4--5------4--5------4--7----------------------------7--7-
--7--7-----4--5------4--5------4--7----------------------------7--7-
--5--5-----2--3------2--3------2--5-----0--2--0--5--0--2--0----5--5-

----------------------------------------------------
----------------------------------------------------
----------------------------------------------------
--4--5------4--5-------4--7-------------------------
--4--5------4--5-------4--7-------------------------
--2--3------2--3-------2--5-----0--2--0--5--0--2--0-
                                                                                  
-------------------------------------
-------------------------------------
-------------------------------------
--7--7------4--5------4--5------4--7-
--7--7------4--5------4--5------4--7-
--5--5------2--3------2--3------2--5-

solo- chorus played underneath            
---------------------------------------------------------
-----------10-------------------10--13^----------10--13^-
---\9--11------11/------\9--11------------\9--11---------
---------------------------------------------------------
---------------------------------------------------------
---------------------------------------------------------
      
--------------------------------------------------
----------10---13--12--10--13--12--10--13--12--10-
--\9--11------------------------------------------
--------------------------------------------------
--------------------------------------------------
--------------------------------------------------

solo continues for another couple lines
                                                                        

chorus              
-----------------------------------------------------------
-----------------------------------------------------------
-----------------------------------------------------------
--7--7------4--5-----4--5-----4--7-------------------------
--7--7------4--5-----4--5-----4--7-------------------------
--5--5------2--3-----2--3-----2--5-----0--2--0--5--0--2--0-                                                                   
-------------------------------------------------------------
-------------------------------------------------------------
-------------------------------------------------------------
--7--7-----4--5------4--5-------4--7-------------------------
--7--7-----4--5------4--5-------4--7-------------------------
--5--5-----2--3------2--3-------2--5-----0--2--0--5--0--2--0-
          
--------------------------------------------------------------
--------------------------------------------------------------
--------------------------------------------------------------
--7--7-------4--5------4--5------4--7-------------------------
--7--7-------4--5------4--5------4--7-------------------------
--5--5-------2--3------2--3------2--5-----0--2--0--5--0--2--0-
                     
-------------------------------------------------------------------
-------------------------------------------------------------------
-------------------------------------------------------------------
--7--7--------4--5--------4--5--------4--7-------------------------
--7--7--------4--5--------4--5--------4--7-------------------------
--5--5--------2--3--------2--3--------2--5-----0--2--0--5--0--2--0-
                         
----------------------------------------------------------------
----------------------------------------------------------------
----------------------------------------------------------------
--7--7-------4--5-------4--5------4--7--------------------------
--7--7-------4--5-------4--5------4--7--------------------------
--5--5-------2--3-------2--3------2--5------0--2--0--5--0--2--0-
         
------------------------------------------------------------
------------------------------------------------------------
------------------------------------------------------------
--7--7------4--5------4--5-----4--7-------------------------
--7--7------4--5------4--5-----4--7-------------------------
--5--5------2--3------2--3-----2--5-----0--2--0--5--0--2--0- 
                                                                        
-------------------------------------------------------------
-------------------------------------------------------------
-------------------------------------------------------------
--7--7-----4--5------4--5-------4--7-------------------------
--7--7-----4--5------4--5-------4--7-------------------------
--5--5-----2--3------2--3-------2--5-----0--2--0--5--0--2--0-

---------------------------------------------------------------
---------------------------------------------------------------
---------------------------------------------------------------
--7--7------4--5--------4--5------4--7-------------------------
--7--7------4--5--------4--5------4--7-------------------------
--5--5------2--3--------2--3------2--5-----0--2--0--5--0--2--0-


Important: The song above is NOT stored on the Chordie server. The original song is hosted at www.xguitar.com. Chordie works as a search engine and provides on-the-fly formatting. Chordie does not index songs against artists/composers will. To remove this song please click here.

This song is displayed as text-only. Transposing and tuning is only available for chordpro-songs.

Login - add to songbook

Rating click stars to rate

Layout
Accuracy

SHARE PAGE  




You need to log in to post comments