Hell on High Heels

Motley Crue


hell on high heels motley crue
\- slide up /- slide down ^- use bar
intro- x6 --------------------------------------------------- -------------------------------8--------7---------- ---------------------7---------7--------7---------- --\--------7---------7---------5--------5---------- --\--------7---------5---------------------0--3--4- --\--------5---------------------------------------
verse --------------------------------------------------- --------------------------------------------------- --5-------------------------5---------------------- --5-------------------------5---------------------- --3------------3------------3-----------3---------- -----0--2--3-----0--2--3-------0--2--3-----0--2--3- ------------------------------------------ ----------------------8--------7---------- ------------7---------7--------7---------- --7---------7---------5--------5---------- --7---------5---------------------0--3--4- --5---------------------------------------
------------------------------------------ ----------------------8--------7---------- ------------7---------7--------7---------- --7---------7---------5--------5---------- --7---------5---------------------0--3--4- --5---------------------------------------
------------------------------------------ ----------------------8--------7---------- ------------7---------7--------7---------- --7---------7---------5--------5---------- --7---------5---------------------0--3--4- --5--------------------------------------- ------------------------------------------ ----------------------8--------7---------- ------------7---------7--------7---------- --7---------7---------5--------5---------- --7---------5---------------------0--3--4- --5--------------------------------------- -------------------------------------------------- -------------------------------------------------- --5------------------------5---------------------- --5------------------------5---------------------- --3-----------3------------3-----------3---------- -----0--2--3-----0--2--3------0--2--3-----0--2--3-
------------------------------------------ ----------------------8--------7---------- ------------7---------7--------7---------- --7---------7---------5--------5---------- --7---------5---------------------0--3--4- --5---------------------------------------
------------------------------------------ ----------------------8--------7---------- ------------7---------7--------7---------- --7---------7---------5--------5---------- --7---------5---------------------0--3--4- --5---------------------------------------
------------------------------------------ ----------------------8--------7---------- ------------7---------7--------7---------- --7---------7---------5--------5---------- --7---------5---------------------0--3--4- --5---------------------------------------
------------------------------------------ ----------------------8--------7---------- ------------7---------7--------7---------- --7---------7---------5--------5---------- --7---------5---------------------0--3--4- --5---------------------------------------
pre chorus ---------------------------------------------------------------------- ---------------------------------------------------------------------- --7-------------------------7----------------------------------------- --7------------7------------7---------------7------------------------- --5------------7------------5---------------7------------------------- ------0--2--0--5--0--2--0--------0--2--0----5-----0--2--0--5--0--2--0-
------------------------------------------------------------------------- ------------------------------------------------------------------------- --7-------------------------7-------------------------------------------- --7------------7------------7---------------7--------------------------2- --5------------7------------5---------------7--------------------------2- ------0--2--0--5--0--2--0--------0--2--0----5-----0--2--0--5--0--2--0--0-
chorus -------------------------------------------------------------------------- -------------------------------------------------------------------------- --9--9-------------------------------------------------------------------- --9--9------7--7------4--5---4--5-----4--7---------------------------7--7- --7--7------7--7------4--5---4--5-----4--7---------------------------7--7- ------------5--5------2--3---2--3-----2--5---0--2--0--5--0--2--0-----5--5-
----------------------------- ----------------------------- ----------------------------- --4--5------4--5--------4--7- --4--5------4--5--------4--7- --2--3------2--3--------2--5-
------------------------------------------ ----------------------8--------7---------- ------------7---------7--------7---------- --7---------7---------5--------5---------- --7---------5---------------------0--3--4- --5---------------------------------------
------------------------------------------ ----------------------8--------7---------- ------------7---------7--------7---------- --7---------7---------5--------5---------- --7---------5---------------------0--3--4- --5---------------------------------------
------------------------------------------ ----------------------8--------7---------- ------------7---------7--------7---------- --7---------7---------5--------5---------- --7---------5---------------------0--3--4- --5---------------------------------------
------------------------------------------ ----------------------8--------7---------- ------------7---------7--------7---------- --7---------7---------5--------5---------- --7---------5---------------------0--3--4- --5--------------------------------------- verse -------------------------------------------------- -------------------------------------------------- --5-------------------------5--------------------- --5-------------------------5--------------------- --3-----------3-------------3-----------3--------- -----0--2--3-----0--2--3-------0--2--3----0--2--3-
------------------------------------------
----------------------8--------7---------- ------------7---------7--------7---------- --7---------7---------5--------5---------- --7---------5---------------------0--3--4- --5---------------------------------------
------------------------------------------ ----------------------8--------7---------- ------------7---------7--------7---------- --7---------7---------5--------5---------- --7---------5---------------------0--3--4- --5---------------------------------------
---------------------------------------------------- ---------------------------------------------------- --5-------------------------5----------------------- --5-------------------------5----------------------- --3-----------3-------------3------------3---------- -----0--2--3-----0--2--3--------0--2--3-----0--2--3-
------------------------------------------ ----------------------8--------7---------- ------------7---------7--------7---------- --7---------7---------5--------5---------- --7---------5---------------------0--3--4- --5---------------------------------------
------------------------------------------ ----------------------8--------7---------- ------------7---------7--------7---------- --7---------7---------5--------5---------- --7---------5---------------------0--3--4- --5---------------------------------------
pre chorus ----------------------------------------------------------------------- ----------------------------------------------------------------------- --7--------------------------7----------------------------------------- --7--------------7-----------7---------------7------------------------- --5--------------7-----------5---------------7------------------------- -----0--2--0-----5--0--2--0-------0--2--0----5-----0--2--0--5--0--2--0- --------------------------------------------------------------- --------------------------------------------------------------- ------------------7-------------------------------------------- --7---------------7---------------7--------------------------2- --7---------------5---------------7--------------------------2- --5----0--2--0---------0--2--0----5-----0--2--0--5--0--2--0--0- chorus ------------------------------------------------------------------------ ------------------------------------------------------------------------ --9--9------------------------------------------------------------------ --9--9--------7--7-------4--5-----4--5-----4--7------------------------- --7--7--------7--7-------4--5-----4--5-----4--7------------------------- --------------5--5-------2--3-----2--3-----2--5-----0--2--0--5--0--2--0- -------------------------------------------------------------------- -------------------------------------------------------------------- -------------------------------------------------------------------- --7--7-----4--5------4--5------4--7----------------------------7--7- --7--7-----4--5------4--5------4--7----------------------------7--7- --5--5-----2--3------2--3------2--5-----0--2--0--5--0--2--0----5--5-
---------------------------------------------------- ---------------------------------------------------- ---------------------------------------------------- --4--5------4--5-------4--7------------------------- --4--5------4--5-------4--7------------------------- --2--3------2--3-------2--5-----0--2--0--5--0--2--0- ------------------------------------- ------------------------------------- ------------------------------------- --7--7------4--5------4--5------4--7- --7--7------4--5------4--5------4--7- --5--5------2--3------2--3------2--5-
solo- chorus played underneath --------------------------------------------------------- -----------10-------------------10--13^----------10--13^- ---\9--11------11/------\9--11------------\9--11--------- --------------------------------------------------------- --------------------------------------------------------- --------------------------------------------------------- -------------------------------------------------- ----------10---13--12--10--13--12--10--13--12--10- --\9--11------------------------------------------ -------------------------------------------------- -------------------------------------------------- --------------------------------------------------
solo continues for another couple lines
chorus ----------------------------------------------------------- ----------------------------------------------------------- ----------------------------------------------------------- --7--7------4--5-----4--5-----4--7------------------------- --7--7------4--5-----4--5-----4--7------------------------- --5--5------2--3-----2--3-----2--5-----0--2--0--5--0--2--0- ------------------------------------------------------------- ------------------------------------------------------------- ------------------------------------------------------------- --7--7-----4--5------4--5-------4--7------------------------- --7--7-----4--5------4--5-------4--7------------------------- --5--5-----2--3------2--3-------2--5-----0--2--0--5--0--2--0- -------------------------------------------------------------- -------------------------------------------------------------- -------------------------------------------------------------- --7--7-------4--5------4--5------4--7------------------------- --7--7-------4--5------4--5------4--7------------------------- --5--5-------2--3------2--3------2--5-----0--2--0--5--0--2--0- ------------------------------------------------------------------- ------------------------------------------------------------------- ------------------------------------------------------------------- --7--7--------4--5--------4--5--------4--7------------------------- --7--7--------4--5--------4--5--------4--7------------------------- --5--5--------2--3--------2--3--------2--5-----0--2--0--5--0--2--0- ---------------------------------------------------------------- ---------------------------------------------------------------- ---------------------------------------------------------------- --7--7-------4--5-------4--5------4--7-------------------------- --7--7-------4--5-------4--5------4--7-------------------------- --5--5-------2--3-------2--3------2--5------0--2--0--5--0--2--0- ------------------------------------------------------------ ------------------------------------------------------------ ------------------------------------------------------------ --7--7------4--5------4--5-----4--7------------------------- --7--7------4--5------4--5-----4--7------------------------- --5--5------2--3------2--3-----2--5-----0--2--0--5--0--2--0- ------------------------------------------------------------- ------------------------------------------------------------- ------------------------------------------------------------- --7--7-----4--5------4--5-------4--7------------------------- --7--7-----4--5------4--5-------4--7------------------------- --5--5-----2--3------2--3-------2--5-----0--2--0--5--0--2--0-
--------------------------------------------------------------- --------------------------------------------------------------- --------------------------------------------------------------- --7--7------4--5--------4--5------4--7------------------------- --7--7------4--5--------4--5------4--7------------------------- --5--5------2--3--------2--3------2--5-----0--2--0--5--0--2--0-












variations - click chord images
Transpose chords:
Tuning:
Cool service:
View: Size:
A  A  A
Rating:
Layout:
  • Currently 0/5 Stars.
  • 1
  • 2
  • 3
  • 4
  • 5
 
Accuracy:
  • Currently 3.7/5 Stars.
  • 1
  • 2
  • 3
  • 4
  • 5
 
click stars to rate
Chordie recommends:
Get acoustic guitar lessons and electric guitar lessons at JamPlay.com
Songbook:
Login to add this song to your songbook
Support the artist
Preview/buy this song
MSN Music
Why this non-profit ad?

 
login to add comments/video/corrections