Chordie logo


On With the Show    Motley Crue



Date: Fri, 16 Mar 2001 17:57:52 -0500



On With the Show - Mötley CrÜe
Found on "Too Fast For Love" (1981)
Transcribed into standard tuning by Richard J. List

Intro and Verse
 4/4
  Gtr I
e|---------------------------------------------------------------------------|
B|----------------------------------------------------------------7----------|
G|-------------h11-12p-11-------------------12-11p------------------7---7----|
D|-------12---------------12----------12-----------12---------9-------9------|
A|----12----12---------------12----12----12-----------12----9---9------------|
E|-10----------------------------9------------------------7------------------|
e|--------------------------------------------------------------|
B|---------------------------------------------------0----------|
G|---------h6-7p-6--------------h4-5p-4----------------0---0----|
D|-----7-----------7--------5-----------5--------2-------2------|
A|---7---7-----------7----5---5-----------5----2---2------------|
E|-5--------------------3--------------------0------------------|
e|--------------------------------------------|
B|--------------------------------------------|
G|---------h6-7p-6-------------h6-7p-6--------|
D|-----7-----------7-------7-----------7------|
A|---7---7-----------7---7---7-----------7----|
E|-5-------------------5----------------------|
Tablature Legend
----------------
 h   - hammer-on
 p   - pull-off
 b   - bend
 pb  - pre-bend
 r   - bend release (if no number after the r, then release immediately)
 /  - slide into or out of (from/to "nowhere")
 s   - legato slide
 S   - shift slide
  - natural harmonic
[n]  - artificial harmonic
n(n) - tapped harmonic
 ~   - vibrato
 tr  - trill
 T   - tap
 TP  - trem. picking
 PM  - palm muting

/  - tremolo bar dip; n = amount to dip

  - tremolo bar down
 n/  - tremolo bar up
/n  - tremolo bar inverted dip
 =   - hold bend; also acts as connecting device for hammers/pulls
   - volume swell (louder/softer)
 x   - on rhythm slash represents muted slash
 o   - on rhythm slash represents single note slash

Misc Legend
-----------
 |  - bar
||  - double bar
||o - repeat start
o|| - repeat end
*|  - double bar (ending)
 :  - bar (freetime)
 $  - Segno
 &  - Coda
Tempo markers -  = BPM(8/16=s8/s16), where s8 = swing 8ths,


Important: The song above is NOT stored on the Chordie server. The original song is hosted at www.xguitar.com. Chordie works as a search engine and provides on-the-fly formatting. Chordie does not index songs against artists/composers will. To remove this song please click here.

This song is displayed as text-only. Transposing and tuning is only available for chordpro-songs.

Login - add to songbook

Rating click stars to rate

Layout
Accuracy

SHARE PAGE  




You need to log in to post comments