Chordie logo


Whorehouse Blues    Motorhead



awesome campfire-type song.

verse:
----------------------------------------|
----------------------------------------|
----------------------------------------|
-6-6-9-6--6-4-6-9-6-4-6--6-9-6-9-6-4-6--|    play last part twice
-6-6-9-4--6-4-6-9-6-4-6--6-9-6-9-6-4-6--|
-4-4-7-4--4-2-4-7-4-2-4--4-7-4-7-4-2-4--|

chorus riff
----------------------------------------|
----------------------------------------|
-6-6-6-6-6-6-6-6-6-6-6-6-6-6------------|
-6-6-6-6-6-6-6-6-6-6-6-6-6-6------------|
-4-4-4-4-4-4-4-4-4-4-4-4-4-4------------|
----------------------------------------|

sometimes this is played rather than the normal chorus:
----------------------------------------|
----------------------------------------|
----------------------------------------|
-2-2-4-4--------------------------------|
-2-2-4-4--(4X)--------------------------|
-0-0-2-2--------------------------------|



Important: The song above is NOT stored on the Chordie server. The original song is hosted at www.xguitar.com. Chordie works as a search engine and provides on-the-fly formatting. Chordie does not index songs against artists/composers will. To remove this song please click here.

This song is displayed as text-only. Transposing and tuning is only available for chordpro-songs.

Login - add to songbook

Rating click stars to rate

Layout
Accuracy

SHARE PAGE  




You need to log in to post comments