Guitar Tabs, Chords and Lyrics


A Key to Nothing    Mudvayne



Song: "A Key To Nothing"
Artist: Mudvayne
Album: The End of All Things To Come
Transcribed By: Bryan Bramlett (bryanmb87@aol.com)

Tuning: Drop D, 1 Step Down (C,G,C,F,A,D)

VERSE
|------------------------------------------------------------|
|----------8----8-----8----8-----8---8----8-----8----8-----8-|
|------------11---11----11---11--------11---11----11---11----|
|------------------------------------------------------------|
|-0-0-0-0----------------------------------------------------|
|-0-0-0-0----------------------------------------------------|
pm. . . .

CHORUS:
|-------------------------------------------------|
|-------------------------------------------------|
|-----------------5------5-----5---------5------5-|
|-----------------3------3-----3---------3------3-|
|-0-3-2-0-0-0-0-0-3--0-0-3-0-0-3-0-0-0-0-3--0-0-3-|
|-0-3-2-0-0-0-0-0-3--0-0-3-0-0-3-0-0-0-0-3--0-0-3-|
pm. . . . . . . .    . .   . .   . . . .    . .

FILL: (palm mute)
|---------|
|---------|
|---------|
|---------|
|-0-3-2-0-|
|-0-3-2-0-|

FILL 2:
|-----------|
|-----------|
|-----------|
|---------0-|
|-0-3-2-0-0-|
|-0-3-2-0-0-|
pm. . . .

INTERLUDE:
|-------------------------------|
|-------------------------------|
|-5-8-7-5-7---------------------|
|-X-X-X-X-X---------------------|
|-3-6-5-3-5-------------8-----8-|
|-----------0-0-0-1-0-0---0-0---|

INTERLUDE 2:
|----------------------------|
|----------------------------|
|-5-8-7-5-7-------6--------6-|
|-X-X-X-X-X-------X--------X-|
|-3-6-5-3-5-0-0-0-4--0-0-0-4-|
|-----------0-0-0----0-0-0---|
pm          . . .    . . .

INTERLUDE 3:
|-------------------------------------------------------------|
|-------------------------------------------------------------|
|-5-8-7-5-----------------------------------------------------|
|-X-X-X-X---------3-----3--------3---3---------3-----3--------|
|-3-6-5-3-0-0-0-0-3-0-0-3--0-000-3-0-3---0-0-0-3-0-0-3--0-000-|
|---------0-0-0-0-3-0-0-3--0-000-3-0-3---0-0-0-3-0-0-3--0-000-|
pm        . . . .   . .    . ...   .     . . .   . .    . ...

FILL 3:
|---------|
|---------|
|-5-8-7-5-|
|-X-X-X-X-|
|-3-6-5-3-|
|---------|

OUTRO:
|----------------------------|
|----------------------------|
|-----------------6--------6-|
|-----------------X--------X-|
|-0-3-2-0-0-0-0-0-4--0-0-0-4-|
|-0-3-2-0-0-0-0-0----0-0-0---|


Important: The song above is NOT stored on the Chordie server. The original song is hosted at www.xguitar.com. Chordie works as a search engine and provides on-the-fly formatting. Chordie does not index songs against artists'/composers' will. To remove this song please click here.

This song is displayed as text-only. Transposing and tuning is only available for chordpro-songs.

Login - add to songbook

Rating click stars to rate

Layout
Accuracy

SHARE PAGE  




You need to log in to post comments