Chordie logo

Dawn of the Dead    Murderdolls



Dawn Of The Dead
Music by Murderdolls
Lyrics by Wednesday 14
Tabbed by Michael Hutchesson

Here you go, pretty easy song. even the leadwork


TUNING: Standard


Riff A
E|------------------------------------------------------------------------|
B|------------------------------------------------------------------------|
G|9-9-9-9-8-8-8-8-4-4-4-4-4-4-4-4-9-9-9-9-8-8-8-8--9--9--9--9--9--9--9--9-|
D|9-9-9-9-8-8-8-8-4-4-4-4-4-4-4-4-9-9-9-9-8-8-8-8--9--9--9--9--9--9--9--9-|
A|7-7-7-7-6-6-6-6-2-2-2-2-2-2-2-2-7-7-7-7-6-6-6-6-11-11-11-11-11-11-11-11-|
E|------------------------------------------------------------------------|


Riff B
E|------------------------------------------------------------------------|
B|------------------------------------------------------------------------|
G|9-9-9-9-8-8-8-8-4-4-6-6-4-4-----9-9-9-9-8-8-8-8--9--9--9--9--9--9--9--9-|
D|9-9-9-9-8-8-8-8-4-4-6-6-4-4-4-4-9-9-9-9-8-8-8-8--9--9--9--9--9--9--9--9-|
A|7-7-7-7-6-6-6-6-2-2-4-4-2-2-4-4-7-7-7-7-6-6-6-6-11-11-11-11-11-11-11-11-|
E|----------------------------6-6-----------------------------------------|

Lead A
E|12-12-12-12-11-11-11-11-7-7-7-7-7-7-7-7-12-12-12-12-11-11-11-11-16-16-16-16-16-16-16-16-|
B|----------------------------------------------------------------------------------------|
G|----------------------------------------------------------------------------------------|
D|----------------------------------------------------------------------------------------|
A|----------------------------------------------------------------------------------------|
E|----------------------------------------------------------------------------------------|

Lead B
E|12---12---11---11---7---7---7---7---12---12---11---11---16---16---16---16---|
B|----------------------------------------------------------------------------|
G|----------------------------------------------------------------------------|
D|----------------------------------------------------------------------------|
A|----------------------------------------------------------------------------|
E|----------------------------------------------------------------------------|

Lead C
E|12-12-----11-11-----7---------------12-12-----11-11-----16---------------|
B|-------------------------------------------------------------------------|
G|-------------------------------------------------------------------------|
D|-------------------------------------------------------------------------|
A|-------------------------------------------------------------------------|
E|-------------------------------------------------------------------------|

Bridge Riff
E|----------------------------|
B|----------------------------|
G|----------------------------|
D|X-X-4--4-X-X-4-6-4-6--X-X-X-|
A|X-X-4--4-X-X-4-6-4-6--X-X-X-|
E|X-X-2--2-X-X-2-4-2-4--X-X-X-|

Bridge Ending
E|--------------------------------|
B|--------------------------------|
G|--------------------------------|
D|2-2-2-2-2-2-2-2-4-4-4-4-4-4-4-4-|
A|2-2-2-2-2-2-2-2-4-4-4-4-4-4-4-4-|
E|0-0-0-0-0-0-0-0-2-2-2-2-2-2-2-2-|

Bridge Ending G2
E|0---------------2---------------|
B|--------------------------------|
G|--------------------------------|
D|--------------------------------|
A|--------------------------------|
E|--------------------------------|

Bridge Ending B
E|---------------------|
B|---------------------|
G|---------------------|
D|X-X-4--4-X-X-4-6-4-6-|
A|X-X-4--4-X-X-4-6-4-6-|
E|X-X-2--2-X-X-2-4-2-4-|

Solo
E|---------------------------------------------
B|4-5-4-5---4--7--5--4-5-4-------4-5-4-5-4-----
G|-------------------------4-----------------4-
D|---------------------------------------------
A|---------------------------------------------
E|---------------------------------------------

E|-------------------------------------------4-|

B|4-5-4-5---4--7--5--4-5-4-------4-5-4-5-4-----|
G|-------------------------4-------------------|
D|---------------------------------------------|
A|---------------------------------------------|
E|---------------------------------------------|


ORDER

Effects and Bass only
Riff A (only every second strum and with Lead A)
Bridge (bridge riff x 3 then bridge ending (+ G2) once)
Riff A x 2 (palm muted)
Bridge
Riff A x 2 (with Lead B x 2)
Bridge
Riff A x 2 (palm muted)
Bridge
Riff A x 2
Riff B x 2
Riff A x 2 (with solo)
Bridge
Drums and vocals only
Riff A x 2 (with solo)
Riff B x 2 (with solo)
Bridge Riff x 3


Important: The song above is NOT stored on the Chordie server. The original song is hosted at www.xguitar.com. Chordie works as a search engine and provides on-the-fly formatting. Chordie does not index songs against artists/composers will. To remove this song please click here.

This song is displayed as text-only. Transposing and tuning is only available for chordpro-songs.

Login - add to songbook

Rating click stars to rate

Layout
Accuracy

SHARE PAGE  

You need to log in to post comments