Hysteria

Muse

E||----------------------------------------|

B||----------------------------------------|
G||*-14-14-14-14-14-14-14-14-14--16r---14--|
D||*---------------------------------------|
A||--12-12-12-12-12-12-12-12-12------------|
E||----------------------------------------|

----------------------------------------|----------------------------------------|
----------------------------------------|----------------------------------------|
--13-13-13-13-13-13-13-13-13--16r---14--|--10-10-10-10-10-10-10-10-10--16r---14--|
----------------------------------------|----------------------------------------|
--11-11-11-11-11-11-11-11-11------------|--8--8--8--8--8--8--8--8--8-------------|
----------------------------------------|----------------------------------------|
--------------------------------||-----------||
--------------------------------||-----------||
--9-9-9-9-9-9-9-9-9--16b---16--*||-----------||
-------------------------------*||--7--7/-x--||  No guitar during singing of verse
--7-7-7-7-7-7-7-7-7-------------||--7--7/-x--||
--------------------------------||--5--5/-x--||

||Verse Starts here

Chorus Lead up
==============
E||----------------------------------||
B||----------------------------------||
G||----------------------------------||
D||--7-7-7-7-7-7-7-7-7-7-7-7-7-7-7-7-||
A||--7-7-7-7-7-7-7-7-7-7-7-7-7-7-7-7-||
E||--5-0-0-0-0-0-5-0-0-0-0-0-5-0-5-0-||


Chorus Tremelo Dip Tremelo Dip Tremelo Dip
======
 CCCGGGDmDmDm
E||--3----3--------3----|--3----3--------3----|--5----5--------5----|
B||--5----5--------5----|--3----3--------3----|--6----6--------6----|
G||--5----5--------5----|--4----4--------4----|--7----7--------7----|
D||--5----5--------5----|--5----5--------5----|--7----7--------7----|
A||--3----3--------3----|--5----5--------5----|--5----5--------5----|
E||--3----3--------3----|--3----3--------3----|--5----5--------5----|


Tremelo Dip
 AmAmAm
--5----5--------5----||
--5----5--------5----||
--5----5--------5----||
--7----7--------7----||
--7----7--------7----||
--5----5--------5----||


Tremelo Dip Tremelo Dip Tremelo Dip

 CCCGGGDmDmDm
E||--3----3--------3----|--3----3--------3----|--5----5--------5----|
B||--5----5--------5----|--3----3--------3----|--6----6--------6----|
G||--5----5--------5----|--4----4--------4----|--7----7--------7----|
D||--5----5--------5----|--5----5--------5----|--7----7--------7----|
A||--3----3--------3----|--5----5--------5----|--5----5--------5----|
E||--3----3--------3----|--3----3--------3----|--5----5--------5----|
----------------------------------||
----------------------------------||
----------------------------------||
----------------------------------||
--7-7-5-7---10-10-7-10---10-7-10--||
----------------------------------||


Pre Verse
=========

E||----------------------------------------|
B||----------------------------------------|
G||--14-14-14-14-14-14-14-14-14--16r---14--|
D||----------------------------------------|
A||--12-12-12-12-12-12-12-12-12------------|
E||----------------------------------------|
----------------------------------------|----------------------------------------|
----------------------------------------|----------------------------------------|
--13-13-13-13-13-13-13-13-13--16r---14--|--10-10-10-10-10-10-10-10-10--16r---14--|
----------------------------------------|----------------------------------------|
--11-11-11-11-11-11-11-11-11------------|--8--8--8--8--8--8--8--8--8-------------|
----------------------------------------|----------------------------------------|
--------------------------------||-----------||
--------------------------------||-----------||
--9-9-9-9-9-9-9-9-9--16b---16---||-----------|| // again no guitar with verse vocals
--------------------------------||--7--7/-x--||
--7-7-7-7-7-7-7-7-7-------------||--7--7/-x--||
--------------------------------||--5--5/-x--||


Chorus lead up
==============
E||----------------------------------||
B||----------------------------------||
G||----------------------------------||
D||--7-7-7-7-7-7-7-7-7-7-7-7-7-7-7-7-||
A||--7-7-7-7-7-7-7-7-7-7-7-7-7-7-7-7-||
E||--5-0-0-0-0-0-5-0-0-0-0-0-5-0-5-0-||


Chorus Tremelo Dip Tremelo Dip Tremelo Dip
======
 CCCGGGDmDmDm
E||--3----3--------3----|--3----3--------3----|--5----5--------5----|
B||--5----5--------5----|--3----3--------3----|--6----6--------6----|
G||--5----5--------5----|--4----4--------4----|--7----7--------7----|
D||--5----5--------5----|--5----5--------5----|--7----7--------7----|
A||--3----3--------3----|--5----5--------5----|--5----5--------5----|
E||--3----3--------3----|--3----3--------3----|--5----5--------5----|


Tremelo Dip
 AmAmAm
--5----5--------5----||
--5----5--------5----||
--5----5--------5----||
--7----7--------7----||
--7----7--------7----||
--5----5--------5----||


Tremelo Dip Tremelo Dip Tremelo Dip

 CCCGGGDmDmDm
E||--3----3--------3----|--3----3--------3----|--5----5--------5----|
B||--5----5--------5----|--3----3--------3----|--6----6--------6----|
G||--5----5--------5----|--4----4--------4----|--7----7--------7----|
D||--5----5--------5----|--5----5--------5----|--7----7--------7----|
A||--3----3--------3----|--5----5--------5----|--5----5--------5----|
E||--3----3--------3----|--3----3--------3----|--5----5--------5----|


Tremelo Dip
 AmAm
--5----5--------------||
--5----5--------------||
--5----5--------------||
--7----7---14\\--------||
--7----7---14\\--------||
--5----5---12\\--------||


Breakdown
=========

E||-------------------------------||
B||-------------------------------||
G||-------------------------------|| x3
D||-------------------------------||
A||--0-5-7-0-5-7-0-5--5-4--4-3--4-||
E||-------------------------------||
E||-----------------------------------||
B||-----------------------------------||
G||-----------------------------------||
D||-----------------------------------||
A||--0-5-7-0-5-7-0-10--7--10--7-10-12-||
E||-----------------------------------||


solo 1
======

E||--------12-12-------13-13-------13-13-12-12----12-|
B||--10-10-------10-10-------10-10-------------10----|
G||--------------------------------------------------|
D||--------------------------------------------------|
A||--------------------------------------------------|
E||--------------------------------------------------|
------12-12-----13-13-----13-13-12-12---10-|
--9-9-------9-9-------9-9-------------9----|
-------------------------------------------|
-------------------------------------------|
-------------------------------------------|
-------------------------------------------|
--------13-13-------17-17-------13-13-------12-12-|
--10-10-------10-10-------10-10-------10-10-------|
--------------------------------------------------|
--------------------------------------------------|
--------------------------------------------------|
--------------------------------------------------|
--------12-12-------13-13-------13-13-12-12----12-||
--10-10-------10-10-------10-10-------------10----||
--------------------------------------------------||
--------------------------------------------------||
--------------------------------------------------||
--------------------------------------------------||
E||--------12-12-------13-13-------13-13-12-12----12-|
B||--10-10-------10-10-------10-10-------------10----|
G||--------------------------------------------------|
D||--------------------------------------------------|
A||--------------------------------------------------|
E||--------------------------------------------------|
------12-12-----13-13-----13-13-12-12---10-|
--9-9-------9-9-------9-9-------------9----|
-------------------------------------------|
-------------------------------------------|
-------------------------------------------|
-------------------------------------------|
--------13-13-------17-17-------13-13-------12-12-|
--10-10-------10-10-------10-10-------10-10-------|
--------------------------------------------------|
--------------------------------------------------|
--------------------------------------------------|
--------------------------------------------------|
--12----------10----------8-------7-------||
-----10-10-10-----------------------------||
-----------------10-10-10---9-9-9---7-7-7-||
------------------------------------------||
------------------------------------------||
------------------------------------------||


Solo 2
======

E||--8--------------8--7--5-7-|--7-------------7--7--8--|
B||-----8---------------------|-----8-------------------|
G||--------9------------------|--------7----------------|
D||-----------10--------------|-----------9-------------|
A||---------------------------|-------------------------|
E||---------------------------|-------------------------|
--10----------------10--8--7-8-|--8---------------10--8h-7--||
------10-----------------------|-----10---------------------||
----------10-------------------|---------9------------------||
--------------12---------------|------------10--------------||
-------------------------------|----------------------------||
-------------------------------|----------------------------||
E||--8--------------8--7--5-7-|--7-------------7--7--8--|
B||-----8---------------------|-----8-------------------|
G||--------9------------------|--------7----------------|
D||-----------10--------------|-----------9-------------|
A||---------------------------|-------------------------|
E||---------------------------|-------------------------|
--8b-----8------10--8--7--|--8-----------x\\----------------||
-----------5r-------------|-----10-------x\\----------------||
--------------------------|---------9----x\\----------------||
--------------------------|------------10x\\-----x-x-7-7-7-7||
--------------------------|---------------------x-x-7-7-7-7||
--------------------------|---------------------x-x-5-5-5-5||


Chorus Tremelo Dip Tremelo Dip Tremelo Dip
======
 CCCGGGDmDmDm
E||--3----3--------3----|--3----3--------3----|--5----5--------5----|
B||--5----5--------5----|--3----3--------3----|--6----6--------6----|
G||--5----5--------5----|--4----4--------4----|--7----7--------7----|
D||--5----5--------5----|--5----5--------5----|--7----7--------7----|
A||--3----3--------3----|--5----5--------5----|--5----5--------5----|
E||--3----3--------3----|--3----3--------3----|--5----5--------5----|


Tremelo Dip
 AmAmAm
--5----5--------5----||
--5----5--------5----||
--5----5--------5----||
--7----7--------7----||
--7----7--------7----||
--5----5--------5----||


Tremelo Dip Tremelo Dip Tremelo Dip

 CCCGGGDmDmDm
E||--3----3--------3----|--3----3--------3----|--5----5--------5----|
B||--5----5--------5----|--3----3--------3----|--6----6--------6----|
G||--5----5--------5----|--4----4--------4----|--7----7--------7----|
D||--5----5--------5----|--5----5--------5----|--7----7--------7----|
A||--3----3--------3----|--5----5--------5----|--5----5--------5----|
E||--3----3--------3----|--3----3--------3----|--5----5--------5----|


Tremelo Dip
 AmAm
--5----5--------------||
--5----5--------------||
--5----5--------------||
--7----7---14\\--------||
--7----7---14\\--------||
--5----5---12\\--------||


Outro
=====

E||-------------------------------||
B||-------------------------------||
G||-------------------------------|| x5
D||-------------------------------||
A||--0-5-7-0-5-7-0-5--5-4--4-3--4-||
E||-------------------------------||
E||---------------------------------||
B||---------------------------------||
G||---------------------------------||
D||---------------------------------||
A||--0-5-7-0-5-7-0-5--5-4--4-3\\-----||
E||---------------------------------||


FINIS!!!!!!!!!!!!!!!!!!!!!!!!!!!!!!!!!


Am C Dm G
variations - click chord images
Transpose chords:
Tuning:
Cool service:
View: Size:
A  A  A
Rating:
Layout:
  • Currently 3.4/5 Stars.
  • 1
  • 2
  • 3
  • 4
  • 5
 
Accuracy:
  • Currently 3/5 Stars.
  • 1
  • 2
  • 3
  • 4
  • 5
 
click stars to rate
Chordie recommends:
Get acoustic guitar lessons and electric guitar lessons at JamPlay.com
Songbook:
Login to add this song to your songbook
Support the artist
Preview/buy this song
MSN Music
Why this non-profit ad?

 
login to add comments/video/corrections