"yes"; ?> Micro Cuts by Muse - guitar chords, guitar tabs and lyrics - chordie

Micro Cuts

Muse

 DmGmDA7D7b9E7#9AdimA7sus4A7
                                     INTRO
Gtr.1 (elec.)
 Dm
e||--------------10-----------|--------------10-----------|--------------10-----------|--------------10-----------||
B||o-------10-------10----10--|--------10-------10----10--|--------10-------10----10--|--------10-------10----10-o||
G||-----10----10-------10-----|-----10----10-------10-----|-----10----10-------10-----|-----10----10-------10-----||
D||--12-----------------------|--12-----------------------|--12-----------------------|--12-----------------------||
A||o--------------------------|---------------------------|---------------------------|--------------------------o||
D||---------------------------|---------------------------|---------------------------|---------------------------||

w/slight distortion
 Gm(EbassDm(FbassD(F#bass
e|------------------10--------------|------------------10--------------|--------------10-------------10--|
B|----------10----------10------10--|----------11----------11------11--|----------10-------------10------|
G|------10------10----------10------|------12------12----------12------|------10-------------11----------|
D|--12------------------------------|--12------------------------------|--12-------------12--------------|
A|----------------------------------|----------------------------------|---------------------------------|
D|----------------------------------|----------------------------------|---------------------------------|

 GmDm
e|--------------10----------10-----------|--------------10----------10-----------|--------------10----------10-----------|
B|--------11-------11----11----11----11--|--------11-------11----11----11----11--|--------10-------10----10----10----10--|
G|-----12----12-------12----------12-----|-----12----12-------12----------12-----|-----10----10-------10----------10-----|
D|--12-----------------------------------|--12-----------------------------------|--12-----------------------------------|
A|---------------------------------------|---------------------------------------|---------------------------------------|
D|---------------------------------------|---------------------------------------|---------------------------------------|

 A7(C#bassDm
e|--------------12----------12-----------|--------------10----------10-----------|-----------10----------10----------10--||
B|--------10-------10----10----10----10--|--------10-------10----10----10----10--|--------10----------10----------10-----||
G|-----12----12-------12----------12-----|-----10----10-------10----------10-----|-----10----------10----------10--------||
D|--11-----------------------------------|--12-----------------------------------|--12----------12----------12-----------||
A|---------------------------------------|---------------------------------------|---------------------------------------||
D|---------------------------------------|---------------------------------------|---------------------------------------||

$
VERSE
 DmGm(Ebass
e||------------------10--------------|------------------10--------------|
B||o---------10----------10------10--|----------11----------11------11--|
G||------10------10----------10------|------12------12----------12------|
D||--12------------------------------|--12------------------------------|
A||o---------------------------------|----------------------------------|
D||----------------------------------|----------------------------------|

 Dm(FbassD(F#bassGm
e|--------------10--------------10--|--------------10----------10-----------|--------------10----------10-----------|
B|----------10--------------10------|--------11-------11----11----11----11--|--------11-------11----11----11----11--|
G|------10--------------11----------|-----12----12-------12----------12-----|-----12----12-------12----------12-----|
D|--12--------------12--------------|--12-----------------------------------|--12-----------------------------------|
A|----------------------------------|---------------------------------------|---------------------------------------|
E|----------------------------------|---------------------------------------|---------------------------------------|

 DmA7(C#bassDm
e|--------------10----------10-----------|--------------12----------12-----------|--------------10----------10-----------|
B|--------10-------10----10----10----10--|--------10-------10----10----10----10--|--------10-------10----10----10----10--|
G|-----10----10-------10----------10-----|-----12----12-------12----------12-----|-----10----10-------10----------10-----|
D|--12-----------------------------------|--11-----------------------------------|--12-----------------------------------|
A|---------------------------------------|---------------------------------------|---------------------------------------|
D|---------------------------------------|---------------------------------------|---------------------------------------|
 [1.3.----------------------------------------------][2.4.-------------------------

N.C.
e|--------------10--------------10--------------10--||--x--x----x--x----x--x------||
B|----------10--------------10--------------10-----o||--x--x----x--x----x--x------||
G|------10--------------10--------------10----------||--x--x----x--x----x--x------||
D|--12--------------12--------------12--------------||----------------------------||
A|-------------------------------------------------o||----------------------------||
D|--------------------------------------------------||----------------------------||                                                              

CHORUS
Gtr.1+Gtr.2(elec.)
 GmD7b9Gm
e||--6--6--6--6--6--6--6--6--|--------------------------|--6--6--6--6--6--6--6--6--|
B||--8--8--8--8--8--8--8--8--|--------------------------|--8--8--8--8--8--8--8--8--|
G||--7--7--7--7--7--7--7--7--|--------------------------|--7--7--7--7--7--7--7--7--|
D||--5--5--5--5--5--5--5--5--|--4--4--4--4--4--4--4--4--|--5--5--5--5--5--5--5--5--|
A||--5--5--5--5--5--5--5--5--|--0--0--0--0--0--0--0--0--|--5--5--5--5--5--5--5--5--|
D||--5--5--5--5--5--5--5--5--|--0--0--0--0--0--0--0--0--|--5--5--5--5--5--5--5--5--|

Gtr.2 w/heavy distortion
 D7b9
e|--6--6--6--6--6--6--6--6--|--6--6--6--6--6--6--6--6--|--------------------------|
B|--8--8--8--8--8--8--8--8--|--8--8--8--8--8--8--8--8--|--------------------------|
G|--7--7--7--7--7--7--7--7--|--7--7--7--7--7--7--7--7--|--------------------------|
D|--5--5--5--5--5--5--5--5--|--5--5--5--5--5--5--5--5--|--4--4--4--4--4--4--4--4--|
A|--5--5--5--5--5--5--5--5--|--5--5--5--5--5--5--5--5--|--0--0--0--0--0--0--0--0--|
D|--5--5--5--5--5--5--5--5--|--5--5--5--5--5--5--5--5--|--0--0--0--0--0--0--0--0--|

 Gm
e|--6--6--6--6--6--6--6--6--|--6--6--6--6--6--6--6--6--|--6--6--6--6--6--6--6--6--|
B|--8--8--8--8--8--8--8--8--|--8--8--8--8--8--8--8--8--|--8--8--8--8--8--8--8--8--|
G|--7--7--7--7--7--7--7--7--|--7--7--7--7--7--7--7--7--|--7--7--7--7--7--7--7--7--|
D|--5--5--5--5--5--5--5--5--|--5--5--5--5--5--5--5--5--|--5--5--5--5--5--5--5--5--|
A|--5--5--5--5--5--5--5--5--|--5--5--5--5--5--5--5--5--|--5--5--5--5--5--5--5--5--|
D|--5--5--5--5--5--5--5--5--|--5--5--5--5--5--5--5--5--|--5--5--5--5--5--5--5--5--|

(D7b9)* (E7#9) (Abdim)
e|----------------------------------|--10--10--10--10--10--10--10--10--|----------------------------------|
B|--13--13--13--13--13--13--13--13--|---9---9---9---9---9---9---9---9--|--12--12--12--12--12--12--12--12--|
G|--11--11--11--11--11--11--11--11--|--12--12--12--12--12--12--12--12--|--10--10--10--10--10--10--10--10--|
D|--12--12--12--12--12--12--12--12--|--12--12--12--12--12--12--12--12--|--12--12--12--12--12--12--12--12--|
A|--12--12--12--12--12--12--12--12--|--10--10--10--10--10--10--10--10--|--11--11--11--11--11--11--11--11--|
D|---0---0---0---0---0---0---0---0--|----------------------------------|----------------------------------|

 A7sus4
e|----------------------------------|----------------------------------|
B|--10--10--10--10--10--10--10--10--|--10--10--10--10--10--10--10--10--|
G|--12--12--12--12--12--12--12--12--|--12--12--12--12--12--12--12--12--|
D|--12--12--12--12--12--12--12--12--|--12--12--12--12--12--12--12--12--|
A|--12--12--12--12--12--12--12--12--|--12--12--12--12--12--12--12--12--|
D|----------------------------------|----------------------------------|

A7 To Coda@
e|----------------------------------|----------------------------------||
B|--10--10--10--10--10--10--10--10--|--10--10--10--10--10--10--10--10--||
G|--12--12--12--12--12--12--12--12--|--12--12--12--12--12--12--12--12--||
D|--11--11--11--11--11--11--11--11--|--11--11--11--11--11--11--11--11--||
A|--12--12--12--12--12--12--12--12--|--12--12--12--12--12--12--12--12--||
D|----------------------------------|----------------------------------||

 Dm
Gtr.1                                                                                                    D.$.al Coda
Gtr.2 tacet w/repeats
e||--------------10-----------|--------------10-----------|--------------10-----------|--------------10-----------||
B||--------10-------10----10--|--------10-------10----10--|--------10-------10----10--|--------10-------10----10--||
G||-----10----10-------10-----|-----10----10-------10-----|-----10----10-------10-----|-----10----10-------10-----||
D||--12-----------------------|--12-----------------------|--12-----------------------|--12-----------------------||
A||---------------------------|---------------------------|---------------------------|---------------------------||
D||---------------------------|---------------------------|---------------------------|---------------------------||

@Coda
Dm Gtr.1
   e||--------------------|--------------------|--------------------|--------------------||
   B||--------------------|--------------------|--------------------|--------------------||
   G||--7*----------------|--------------------|--------------------|--------------------||
   D||--------------------|--------------------|--------------------|--------------------||
   A||--5*----------------|--------------------|--------------------|-----------------5--||
   D||--------------------|--------------------|--------------------|--------------------||

w/ad lib.feedback+whammy fx
*Hold notes down,do not strike
BRIDGE
 DbassEbassGbass
e||----------------------------------|--------------------------|--------------------------|--------------------------|
B||----------------------------------|--------------------------|--------------------------|--------------------------|
G||--10--10--10--10--10--10--10--10--|--9--9--9--9--7--7--7--7--|--6--6--6--6--6--6--6--6--|--4--4--4--4--6--6--6--6--|
D||----------------------------------|--------------------------|--------------------------|--------------------------|
A||---8---8---8---8---8---8---8---8--|--7--7--7--7--5--5--5--5--|--4--4--4--4--4--4--4--4--|--2--2--2--2--4--4--4--4--|
D||----------------------------------|--------------------------|--------------------------|--------------------------|

 F#bassAbass
e|--------------------------|------------------------------|----------------------------------|-----------------------|
B|--------------------------|------------------------------|----------------------------------|-----------------------|
G|--7--7--7--7--7--7--7--7--|--9--9--9--9--10--10--10--10--|--11--11--11--11--11--11--11--11--|------------11--11--x--|
D|--------------------------|------------------------------|----------------------------------|-----------------------|
A|--5--5--5--5--5--5--5--5--|--7--7--7--7---8---8---8---8--|---9---9---9---9---9---9---9---9--|-------------9---9--x--|
D|--------------------------|------------------------------|----------------------------------|-----------------------|

 DbassC#bassAbassEbass
e|---------------------------|----------------------------------|--------------------------|------------------------------|
B|--tr~~~~~~~~~~~~-----------|----------------------------------|--------------------------|------------------------------|
G|--(12 13)12-------x--x--x--|--12--12--12--12--10--10--10--10--|--9--9--9--9--9--9--9--9--|--10--10--10--10--9--9--9--9--|
D|---------------------------|----------------------------------|--------------------------|------------------------------|
A|------------------x--x--x--|--10--10--10--10---8---8---8---8--|--7--7--7--7--7--7--7--7--|---8---8---8---8--7--7--7--7--|
D|---------------------------|----------------------------------|--------------------------|------------------------------|

 Abass
e|--------------------------|--------------------------|------------------|--------------------------||
B|--------------------------|--------------------------|------------------|--------------------------||
G|--7--7--7--7--7--7--7--7--|--7--7--7--7--7--7--7--7--|--6---------------|--------------------------||
D|--------------------------|--------------------------|------------------|--------------------------||
A|--5--5--5--5--5--5--5--5--|--5--5--5--5--5--5--5--5--|--4------------x--|--x--x--x--x--x--x--x--x--||
D|--------------------------|--------------------------|------------------|--------------------------||

N.C.
e||--------------------------|--------------------------|--------------------------|--------------------------||
B||o-------------------------|--------------------------|--------------------------|-------------------------o||
G||--------------------------|--------------------------|--------------------------|--------------------------||
D||--------------------------|--------------------------|--------------------------|--------------------------||
A||o-5--4--3--0--------------|--------------------3--4--|--5--4--3--0--------------|--------------------3--4-o||
D||--------------6--5--3--0--|--3--0--5--6--7--0--------|--------------6--5--3--0--|--3--0--5--6--7--0--------||
e|--------------------------|--------------------------|--------------------------|--------------------||
B|--------------------------|--------------------------|--------------------------|--------------------||
G|--------------------------|--------------------------|--------------------------|--------------------||
D|--------------------------|--------------------------|--------------------------|--------------------||
A|--5--4--3--0--------------|--5--4--3--0--------------|--5--4--3--0--------------|--5--4--3/9--(9)\5--||
D|--------------6--5--3--0--|--------------6--5--3--0--|--------------6--5--3--0--|--------------------||
                                                                                   [1.------------------------]
e||--------------------------|--------------------------|--------------------------|-------------------------||
B||o-------------------------|--------------------------|--------------------------|------------------------o||
G||--------------------------|--------------------------|--------------------------|-------------------------||
D||--------------------------|--------------------------|--------------------------|-------------------------||
A||o-5--4--3--0--------------|--5--4--3--0--------------|--5--4--3--0--------------|--5--4--3--0------------o||
D||--------------6--5--3--0--|--------------6--5--3--0--|--------------6--5--3--0--|-------------6--5--3--0--||
 [2.---------------------------

 Dsus4
e||-----------------------0--|------0------0---------|--0------------------||
B||-----------------------0--|------0------0---------|--0------------------||
G||-----------------------0--|------0------0---------|--0------------------||
D||-----------------------0--|------0------0---------|--0------------------||
A||--5--4--3--0-----------0--|------0------0---------|--0------------------||
D||--------------6--5--3--0--|------0------0---------|--0------------------||



A A7 A7sus4 Adim C# D D7b9 Dm Dsus4 E E7#9 F# G Gm
variations - click chord images
Transpose chords:
Tuning:
Cool service:
View: Size:
A  A  A
Rating:
Layout:
  • Currently 2.3/5 Stars.
  • 1
  • 2
  • 3
  • 4
  • 5
 
Accuracy:
  • Currently 2.8/5 Stars.
  • 1
  • 2
  • 3
  • 4
  • 5
 
click stars to rate
Chordie recommends:
Check out these online guitar lessons
Songbook:
Login to add this song to your songbook
Support the artist
Preview/buy this song
MSN Music
Why this non-profit ad?

 
login to add comments/video/corrections