Chordie logo

Micro Cuts   Muse



Author/Artist: Muse
Title: Micro cuts
Album: Origin of Symitry
Transcribed by: steve
Email: shrinkinguniverse@hotmail.com

again ths is in drop-d. this apears to be in 4/4 and 2/4 timing, though im certain 

-------------10---------------------------------------------------------------
-------10-------10----10------------------------------------------------------
----10----10-------10---------------------------------------------------------
-12---------------------------------------------------------------------------
------------------------------------------------------------------------------
------------------------------------------------------------------------------
                                                                              

-------------10----------|------------10----------|------10----|------10----|-
-------10-------10----10-|------10-------10----10-|---10----10-|---10----10-|-
----10----10-------10----|---12----12-------12----|10----------|11----------|-
-12----------------------|14----------------------|------------|------------|-
-------------------------|------------------------|------------|------------|-
-------------------------|------------------------|------------|------------|-
                                                                              

-------------10----------|-10----------|-------------10----------|------------
-------11-------11----11-|----11----11-|-------11-------11----11-|------------
----12----12-------12----|-------12----|----12----12-------12----|------------
-12----------------------|-------------|-12----------------------|------------
-------------------------|-------------|-------------------------|------------
-------------------------|-------------|-------------------------|------------
                                                                              

-10----------|-------------10----------|-10----------|------------------------
----11----11-|-------10-------10----10-|----10----10-|------------------------
-------12----|----10----10-------10----|-------10----|------------------------
-------------|-12----------------------|-------------|------------------------
-------------|-------------------------|-------------|------------------------
-------------|-------------------------|-------------|------------------------
                                                                              

-------------12----------|-12----------|-------------10----------|------------
-------10-------10----10-|----10----10-|-------10-------10----10-|------------
----12----12-------12----|-------12----|----10----10-------10----|------------
-11----------------------|-------------|-12----------------------|------------
-------------------------|-------------|-------------------------|------------
-------------------------|-------------|-------------------------|------------
                                                                              

-10----------|-------10----|-------10----|-------10---------------------------
----10----10-|----10----10-|----10----10-|----10----10------------------------
-------10----|-10----------|-10----------|-10---------------------------------
-------------|-------------|-------------|------------------------------------
-------------|-------------|-------------|------------------------------------
-------------|-------------|-------------|------------------------------------
                                                                              

-----------|-----------|------------------------------------------------------
-----------|-----------|------------------------------------------------------
-----------|-----------|------------------------------------------------------
-x-x---x-x-|-x-x---x-x-|-x-x---x-x--------------------------------------------
-x-x---x-x-|-x-x---x-x-|-x-x---x-x--------------------------------------------
-x-x---x-x-|-x-x---x-x-|-x-x---x-x--------------------------------------------
                                                                              

-----------------|-----------------|------------------------------------------
-----------------|-----------------|------------------------------------------
-----------------|-----------------|------------------------------------------
-5-5-5-5-5-5-5-5-|-0-0-0-0-0-0-0-0-|-5-5-5-5-5-5-5-5--------------------------
-5-5-5-5-5-5-5-5-|-0-0-0-0-0-0-0-0-|-5-5-5-5-5-5-5-5--------------------------
-5-5-5-5-5-5-5-5-|-0-0-0-0-0-0-0-0-|-5-5-5-5-5-5-5-5--------------------------
                                                                              

-----------------|-----------------|------------------------------------------
-----------------|-----------------|------------------------------------------
-----------------|-----------------|------------------------------------------
-6-6-6-6-6-6-6-6-|-7-7-7-7-7-7-7-7-|------------------------------------------
-6-6-6-6-6-6-6-6-|-7-7-7-7-7-7-7-7-|------------------------------------------
-6-6-6-6-6-6-6-6-|-7-7-7-7-7-7-7-7-|------------------------------------------
 play this on third time                                                      

------------------------------------------------------------------------------
------------------------------------------------------------------------------
-7----------------------------------------------------------------------------
------------------------------------------------------------------------------
-5----------------------------------------------------------------------------
------------------------------------------------------------------------------
 Gradual pitch shift like on sunburn                                          

------|------|------|------|--------------------------------------------------
------|------|------|------|--------------------------------------------------
-10-9-|-7--6-|-4--6-|-7--9-|-10-11--------------------------------------------
------|------|------|------|--------------------------------------------------
-8--7-|-5--4-|-2--4-|-5--7-|-8--9---------------------------------------------

------|------|------|------|--------------------------------------------------
 these  are t he not es but  not the number of strums                         

-------------|-------|------|------|------------------------------------------
-------------|-------|------|------|------------------------------------------
-12*13-12--10|-9--10-|-10-9-|-7--7-|-6--6-------------------------------------
-------------|-------|------|------|------------------------------------------
-------10--8-|-7--8--|-8--7-|-5--5-|-4--4-------------------------------------
-------------|-------|------|------|------------------------------------------
                                                                              

------------------|-----------------------------------------------------------
------------------|-----------------------------------------------------------
------------------|-----------------------------------------------------------
------------------|-----------------------------------------------------------
--5-4-3-0---------|-----------0-3-4-------------------------------------------
----------6-5-4-3-|-0-3-4-5-6-------------------------------------------------
 this might be the outro riff i dont know                                     

-----------------|-----------------|------------------------------------------
-----------------|-----------------|-6----------------------------------------
-----------------|-----------------|-5----------------------------------------
-----------------|-----------------|-4----------------------------------------
-5-4-3-0---------|-5-4-3-0---------|-5----------------------------------------
---------6-5-4-0-|---------6-5-4-0-|-0----------------------------------------
                                     finish on this                           



Important: The song above is NOT stored on the Chordie server. The original song is hosted at www.xguitar.com. Chordie works as a search engine and provides on-the-fly formatting. Chordie does not index songs against artists/composers will. To remove this song please click here.

This song is displayed as text-only. Transposing and tuning is only available for chordpro-songs.

Login - add to songbook

Rating click stars to rate

Layout
Accuracy

SHARE PAGE  



You need to log in to post comments