Chordie logo

Our Own Way      Mushroomhead



PLayed in drop D (DADGBE)

|-----------------------------------| 2x
|-----------------------------------|
|-----------------------------------|
|-------4-----3------1-----1p3------|
|-3333----333----333---333-----333--|
|-----------------------------------|

|----------------------------------------|
|----------------------------------------| 2x
|----------------------------------------|
|----------------------------------------|
|-------4----3------1-----1p3------------|
|-3333---333---333----333-----333--------|

|-----------------------------------| 2x
|-----------------------------------|
|-----------------------------------|
|-------4-----3------1-----1p3------|
|-3333----333----333---333-----333--|
|-----------------------------------|

|----------------------------------------|
|----------------------------------------| 2x
|----------------------------------------|
|----------------------------------------|
|-------4----3------1-----1p3------------|
|-3333---333---333----333-----333--------|

|-----------------| 2x
|-----------------|
|-----------------|
|-1~--1~--3~--1~--|
|-1~--1~--3~--1~--|
|-1~--1~--3~--1~--|

|-----------------------------------| 2x
|-----------------------------------|
|-----------------------------------|
|-------4-----3------1-----1p3------|
|-3333----333----333---333-----333--|
|-----------------------------------|

|----------------------------------------|
|----------------------------------------| 2x
|----------------------------------------|
|----------------------------------------|
|-------4----3------1-----1p3------------|
|-3333---333---333----333-----333--------|

|-----------------------------------| 2x
|-----------------------------------|
|-----------------------------------|
|-------4-----3------1-----1p3------|
|-3333----333----333---333-----333--|
|-----------------------------------|

|----------------------------------------|
|----------------------------------------| 2x
|----------------------------------------|
|----------------------------------------|
|-------4----3------1-----1p3------------|
|-3333---333---333----333-----333--------|


|-----------------| 2x
|-----------------|
|-----------------|
|-1~--1~--3~--1~--|
|-1~--1~--3~--1~--|
|-1~--1~--3~--1~--|

|-------------------------------|
|-------------------------------|
|-------------------------------|
|-11111111111111111111111111111-|
|-11111111111111111111111111111-|
|-11111111111111111111111111111-|
pm.............................

|---------------------|
|---------------------| 2x
|---------------------|
|-1h2p1--11--11--111--|
|-1h2p1--11--11--111--|
|-1h2p1--11--11--111--|

|-------------------------------|
|-------------------------------|
|-------------------------------|
|-11111111111111111111111111111-|
|-11111111111111111111111111111-|
|-11111111111111111111111111111-|
pm.............................

|---------------------|
|---------------------| 2x
|---------------------|
|-1h2p1--11--11--111--|
|-1h2p1--11--11--111--|
|-1h2p1--11--11--111--|


|-----|
|-----|
|-----|
|-1~--|
|-1~--|
|-1~--|

|---------------------|
|---------------------| 2x
|---------------------|
|-1h2p1--11--11--111--|
|-1h2p1--11--11--111--|
|-1h2p1--11--11--111--|

|-----|
|-----|
|-----|
|-1~--|
|-1~--|
|-1~--|

|---------------------|
|---------------------| 8x
|---------------------|
|-1h2p1--11--11--111--|
|-1h2p1--11--11--111--|
|-1h2p1--11--11--111--|

|-----|
|-----|
|-----|
|-1~--| let feedback ring
|-1~--|
|-1~--|



Important: The song above is NOT stored on the Chordie server. The original song is hosted at www.xguitar.com. Chordie works as a search engine and provides on-the-fly formatting. Chordie does not index songs against artists/composers will. To remove this song please click here.

This song is displayed as text-only. Transposing and tuning is only available for chordpro-songs.

Rating click stars to rate

Layout
Accuracy

SHARE PAGE  

You need to log in to post comments