Our Own Way

Mushroomhead


PLayed in drop D (DADGBE)
|-----------------------------------| 2x |-----------------------------------| |-----------------------------------| |-------4-----3------1-----1p3------| |-3333----333----333---333-----333--| |-----------------------------------|
|----------------------------------------| |----------------------------------------| 2x |----------------------------------------| |----------------------------------------| |-------4----3------1-----1p3------------| |-3333---333---333----333-----333--------|
|-----------------------------------| 2x |-----------------------------------| |-----------------------------------| |-------4-----3------1-----1p3------| |-3333----333----333---333-----333--| |-----------------------------------|
|----------------------------------------| |----------------------------------------| 2x |----------------------------------------| |----------------------------------------| |-------4----3------1-----1p3------------| |-3333---333---333----333-----333--------|
|-----------------| 2x |-----------------| |-----------------| |-1~--1~--3~--1~--| |-1~--1~--3~--1~--| |-1~--1~--3~--1~--|
|-----------------------------------| 2x |-----------------------------------| |-----------------------------------| |-------4-----3------1-----1p3------| |-3333----333----333---333-----333--| |-----------------------------------|
|----------------------------------------| |----------------------------------------| 2x |----------------------------------------| |----------------------------------------| |-------4----3------1-----1p3------------| |-3333---333---333----333-----333--------|
|-----------------------------------| 2x |-----------------------------------| |-----------------------------------| |-------4-----3------1-----1p3------| |-3333----333----333---333-----333--| |-----------------------------------|
|----------------------------------------| |----------------------------------------| 2x |----------------------------------------| |----------------------------------------| |-------4----3------1-----1p3------------| |-3333---333---333----333-----333--------|
|-----------------| 2x |-----------------| |-----------------|
|-1~--1~--3~--1~--| |-1~--1~--3~--1~--| |-1~--1~--3~--1~--|
|-------------------------------| |-------------------------------| |-------------------------------| |-11111111111111111111111111111-| |-11111111111111111111111111111-| |-11111111111111111111111111111-| pm.............................
|---------------------| |---------------------| 2x |---------------------| |-1h2p1--11--11--111--| |-1h2p1--11--11--111--| |-1h2p1--11--11--111--|
|-------------------------------| |-------------------------------| |-------------------------------| |-11111111111111111111111111111-| |-11111111111111111111111111111-| |-11111111111111111111111111111-| pm.............................
|---------------------| |---------------------| 2x |---------------------| |-1h2p1--11--11--111--| |-1h2p1--11--11--111--| |-1h2p1--11--11--111--|
|-----| |-----| |-----| |-1~--| |-1~--| |-1~--|
|---------------------| |---------------------| 2x |---------------------| |-1h2p1--11--11--111--| |-1h2p1--11--11--111--| |-1h2p1--11--11--111--|
|-----| |-----| |-----| |-1~--| |-1~--| |-1~--|
|---------------------| |---------------------| 8x |---------------------| |-1h2p1--11--11--111--| |-1h2p1--11--11--111--| |-1h2p1--11--11--111--|
|-----| |-----| |-----| |-1~--| let feedback ring |-1~--| |-1~--|
any comments or questions please email me at Bloody_finis@hotmail.com




















variations - click chord images
Transpose chords:
Tuning:
Cool service:
View: Size:
A  A  A
Rating:
Layout:
  • Currently 0/5 Stars.
  • 1
  • 2
  • 3
  • 4
  • 5
 
Accuracy:
  • Currently 0/5 Stars.
  • 1
  • 2
  • 3
  • 4
  • 5
 
click stars to rate
Chordie recommends:
Learn to play songs at Jamplay.com with video guitar lessons
Songbook:
Login to add this song to your songbook
Support the artist
Preview/buy this song
MSN Music
Why this non-profit ad?

 
login to add comments/video/corrections