Guitar Tabs, Chords and Lyrics


Americanism  Mxpx

        [G]        [F#]                [D]        [A]        [B]                                                                               
E -------------------------------------------------  <--Use these
B -------------------------------------------------  power chords
G ------------------------------7------------------  thoughtout
D ------5--------4--------------7-------7-------9--  the song.
A ------5--------4--------------5-------7-------9--
E ------3--------2----------------------5-------7--

TRY PLAYING WITH THE MUSIC IF YOU ARE HAVING TROUBLE
__________________________________________________________________
G F# (Solo)
have they got what they wanted? Verse #1
E---------------------------------
B---------------------------------
G---------------------------------           <-----------(SOLO)
D---------------------------------
A-----5--4--5--4--5--4--5--4------
E---------------------------------

[F#]cause they've t[D]aken everythi[A]ng
F# (Solo)
was it for the money?
[F#]or is politica[D]l power to blam[A]e?

G B D B D would you die for your country? Chorus
[G]false freedom and libert[B]y     [D]     [B]     [D]
[G]they're lying when they [B]tell u[D]s    [B]     [D]
G A this is the home of the brave and the land of the free
Interlude:
B D G F# (x4)

G F# (Solo)
why aren't we against them? Verse #2
[F#]cause we kno[D]w that they are w[A]rong
F# (Solo)
we're the biggest fraction
[F#]and they've[D] had control too [A]long

B D G F# (x2)
americanism, nationalism, bow to the flagism!
B D G F# (x2)
militaristic, egotistic, high class and capitalistic!

Important: The song above is NOT stored on the Chordie server. The original song is hosted at www.xguitar.com. Chordie works as a search engine and provides on-the-fly formatting. Chordie does not index songs against artists'/composers' will. To remove this song please click here.

Text color:
Chord color:
Chord grids: 
Font size:    
Page size: 

A B D F# G
variations - click chord images

Login - add to songbook

Transpose chords

Tuning

Rating click stars to rate

Layout
Accuracy

SHARE PAGE  




You need to log in to post comments