Chordie logo

Headfirst for Halos    My Chemical Romance



STANDARD TUNING
intro:
e------------------------------------------------------------------------|
b--5h3h2--7h5h3--8h7h5--10h8h7-------------------------------------------|
g---------------------------------7--7-9-11--4--7-9-11-7--7-9-11-12-11-9-|
d------------------------------------------------------------------------|
a------------------------------------------------------------------------|
e------------------------------------------------------------------------|
continued:

e-----------------------------------------------------------------------|
b-----------------------------8---8-12-14-15-15---15-17-19-20-20--------|
g-11-9h11p9h11p9-7--7-9-11-12-------------------------------------------|
d-----------------------------------------------------------------------|
a-----------------------------------------------------------------------|
e-----------------------------------------------------------------------|

chords under intro:

e-------------------------|
b-------------------------|
g-7------4----------------|
d-7------4------4-------5-|
a-5------2------4-------5-|
e---------------2-------3-|


slide this chord up fretboard struming 16 notes

e------------|
b------------|
g-4/---------|
d-x----------|
a-2/---------|
e------------|

verse:

e-----------------------------------------------------|
b-----------------------------------------------------|
g-7-7-7-6-6-6-4-4-4-4-4-4---9-9-9-8-8-8-7-7-7-x-7-x-7-|
d-7-7-7-6-6-6-4-4-4-4-4-4---9-9-9-8-8-8-7-7-7-x-7-x-7-|
a-5-5-5-4-4-4-2-2-2-2-2-2---7-7-7-6-6-6-5-5-5-x-5-x-5-|
e-----------------------------------------------------|

chorus:lead

e-----------------------------------------------------------|
b----------------------------------------8-7-5-3-2--5-3-5-2-|
g-7-------6-------4----------------4-7-9--------------------|
d---4-7-4---4-7-4---4-7-4--9-7-5-4--------------------------|
a-----------------------------------------------------------|
e-----------------------------------------------------------|

chorus: chords

e----------------------------------------------------|
b----------------------------------------------------|
g----------------2-2--9-9--7-7--9-9------------------|
d-7-7--7-7--4-4--2-2--9-9--7-7--9-9--7-7-------------|
a-5-5--4-4--2-2--0-0--7-7--5-5--7-7--7-7-------------|
e------------------------------------5-5-------------|

end of first chorus:come on!

e--------------------------------------------|
b--------------------------------------------|
g-x-x-x-11-x-x-11-x-x-11-x-x-12-x-x-x-12-x-x-|
d-x-x-x--x-x-x--x-x-x--x-x-x--x-x-x-x--x-x-x-|
a-x-x-x--9-x-x--9-x-x--9-x-x-10-x-x-x-10-x-x-|
e--------------------------------------------|


end of second chorus: thats what i said to her

e------------0--------|
b------------0--------|
g-4-4-4-4-4--2--------|
d-4-4-4-4-4--2--------|
a-2-2-2-2-2--0--------|
e---------------------|

solo: guitar 2 plays verse under solo

e-----------------------------------------------------------------------|
b-----------------------------------------------------------------------|
g-11 11 11 11---7-9-11-9-12-11--12-11-12-11-12-14--9-7-9-11-12-11-12-14-|
d-x--x--x--x----x-x-x--x-x---x--x---x--x--x--x--x--x-x-x--x--x--x--x--x-|
a-9--9--9--9----5-7-9--7-10--9--10--9-10--9-10-12--7-5-7--9-10--9-10-12-|
e-----------------------------------------------------------------------|

solo continued:

e-10-9-10-12-14-12-10-9---2x---15-14-12-10---14-12-14-17-12-10-12-14-15-|
b--x-x--x--x--x--x--x-x---  ----x--x--x--x----x--x--x--x--x--x--x--x--x-|
g--7-6--7--9-11--9--7-6---  ---12-11--9--7---11--9-11-14--9--7--9-11-12-|
d-------------------------  --------------------------------------------|
a-------------------------  --------------------------------------------|
e-------------------------  --------------------------------------------|

solo continued:

e-14-12-10-10-|
b--x--x--x--x-|
g-11--9--7--7-|
d-------------|

a-------------|
e-------------|

break after solo:

e-----------------------------------------|
b-------------15--------------------------|
g--7-7------------------------------------|
d-------------------9-7-5-4-------2-0-0---|
a---------------------------------------4-|
e-----------------------------------------|

outro:

e-10--9-10-12------10-12-10-9--|
b--x--x--x--x-------x--x--x-x--|
g--7--6--7--9-------7--9--7-6--|
d------------------------------|
a------------------------------|
e------------------------------|

outro: second guitar

e----------------------|
b----------------------|
g-7-6-7-9------7-9-7-6-|
d-7-6-7-9------7-9-7-6-|
a-5-4-5-7------5-7-5-4-|
e----------------------|

end on

e----------------------|
b----------------------|
g---------7------------|
d---------7------------|
a---------5------------|
e----------------------|



Important: The song above is NOT stored on the Chordie server. The original song is hosted at www.xguitar.com. Chordie works as a search engine and provides on-the-fly formatting. Chordie does not index songs against artists/composers will. To remove this song please click here.

This song is displayed as text-only. Transposing and tuning is only available for chordpro-songs.

Login - add to songbook

Rating click stars to rate

Layout
Accuracy

SHARE PAGE  

You need to log in to post comments