Guitar Tabs, Chords and Lyrics


Romance    My Chemical Romance



The only way i found out how to play this song was on my keyboard they had it and i slowed down the tempo on the keyboard took all the chords and then transferred it to guitar, it took some hard work and i hope it's all correct


E---7-------7------7------7--------5------3-----2-----0------0--------------------------
B-----0-------0------0------0--------0------0-----0-----0------0------------------------
G--------0-------0------0------0-------0-------0 ----0-----0------0---------------------
D---------------------------------------------------------------------------------------
A---------------------------------------------------------------------------------------
E---------------------------------------------------------------------------------------

E--3-----7----8h9h10h11--12-----12-----12-----12------12--------------------------------
B----0-----0-----------------------0-------0------0------0--------0---------------------
D------0-----0-----------------------0-------0------0-------0-------0-------------------
A---------------------------------------------------------------------------------------
E---------------------------------------------------------------------------------------

E--10-----8-----8-----7-----5----5-----7------8----8-----7----11----8-------------------
B-----0-----0-----0-----0-----0----0-----0------0----0-----0-----0-----0----------------
D-------0-----0-----0-----0-----0----0------0-----0----0-----0-----0-----0--------------
A---------------------------------------------------------------------------------------
E---------------------------------------------------------------------------------------

E--7-----7-----5----3-----3-----2------0-----2-----2-----2-----2-------------------------
B----0-----0----0-----0-----0-----0------0-----0-----0----0------0-----------------------
D------0-----0----0-----0-----0-----0------0-----0-----0----0------0---------------------
A----------------------------------------------------------------------------------------
E----------------------------------------------------------------------------------------

E--3-----2-----0-----0-----0--------------------------------------------------------------
B----0-----0----0------0-----0------------------------------------------------------------
D------0-----0----0------0------0---------------------------------------------------------
A-----------------------------------------------------------------------------------------
E-----------------------------------------------------------------------------------------



Important: The song above is NOT stored on the Chordie server. The original song is hosted at www.xguitar.com. Chordie works as a search engine and provides on-the-fly formatting. Chordie does not index songs against artists/composers will. To remove this song please click here.

This song is displayed as text-only. Transposing and tuning is only available for chordpro-songs.

Login - add to songbook

Rating click stars to rate

Layout
Accuracy

SHARE PAGE  




You need to log in to post comments