Guitar Tabs, Chords and Lyrics


Vampires Will Never Hurt You    My Chemical Romance



-------------------------------------------------------------------------------
        Vampires will never hurt you - My Chemical Romance
-------------------------------------------------------------------------------
tabbed by Brian (xgrafcorex@hotmail.com)
-----------------------------------------

\ - slide down	h - hammer on
/ - slide up	p - pull off
pm - palm mute	^ - bend

guitar1 part one
e|--------------------------------------------------------------------|
B|--------------------------------------------------------------------|
G|9--9--11\9--4--5--8--5-\-4-----9--9--11\9--9--11/12--4--5--8--5\4---|
D|--------------------------------------------------------------------|
A|7--7---9\7--2--3--6--3-\-2-----7--7---9\7--7---9/10--2--3--6--3\2---|
E|--------------------------------------------------------------------|

guitar 2 same part
e|--------------------------------------------------------------------|
B|--------------------------------------------------------------------|
G|9--7---------5-----8--------------9--7----------------------4----8--|
D|--------------------------------------------------------------------|
A|7--5---------3-----6--------------7--5----------------------2----6--|
E|--------------------------------------------------------------------|

part one X 3

pick slide + distortion

guitar 1 part two
e|--------------------------------------------------------------------------|
B|--------------------------------------------------------------------------|
G|9--9--11\9--4--5--8--5-\-4-----9--9--11\9--9--11/12--4--5--8-----5-----4--|
D|--------------------------------------------------------------------------|
A|7--7--9-\7--2--3--6--3-\-2-----7--7---9\7--7---9/10--2--3--6--2--3--2--2--|
E|-------------------------------------------------------- -----0-----0-----|
						   pm     pm
guitar 2 part two
e|-----------------------------------------------------------------------|
B|-----------------------------------------------------------------------|
G|9--7---------5-----8--------------9--7----------------------4----8-----|
D|-----------------------------------------------------------------------|
A|7--5---------3-----6--------------7--5----------------------2----6-----|
E|-----------------------------------------------------------------------|

part two X 2
second time
e|-----------------------------------------------------------------------|
B|-----------------------------------------------------------------------|
G|9--9--11\9--4--5--8--5-\-4-----9--9--11\9--9--11/12--4--5--8---5----4--|
D|-----------------------------------------------------------------------|
A|7--7---9\7--2--3--6--3-\-2-----7--7---9\7--7---9/10--2--3--6---3----2--|
E|-----------------------------------------------------------------------|

interlude
e|-------------------------------------|
B|-------------------------------------|
G|-----s-----s-------------------------|
D|--9--t--9--t---9---------------------|
A|--7--o--7--o---7---ring out----------|
E|-----p-----p-------------------------|

part one X 2
pick slide
part two X 2

chorus
e|--------------------------------------------------------------------------------|
B|--------------------------------------------------------------------------------|
G|------------------------------------------------------------------4--5--8--4--9-|
D|------^-------^-------^-------^-------------------------------------------------|
A|--2---7---2---7---2---8---2---6---2---4---2---4---2---4-----------2--3--6--2--7-|
E|--0-------0-------0-------0-------0---2---0---2---0---2--2h3p2------------------|
     pm      pm      pm       pm      pm      pm      pm		       ring out

part one X 2
first time add  12-----------------------------------------------V
e|---------------------------------------------------------------^-------|
B|----------------------------------------------------------------12-----|
G|9--9--11\9--4--5--8--5-\-4-----9--9--11\9--9--11/12--4--5--8--5--\--4--|
D|-----------------------------------------------------------------------|
A|7--7---9\7--2--3--6--3-\-2-----7--7---9\7--7---9/10--2--3--6--3--\--2--|
E|-----------------------------------------------------------------------|

pick slide
part two X 2 second time has addition --V
e|---------------------------------------------------------------|
B|---------------------------------------------------------------|
G|---------------------------------------------------------------|
D|--9--11---9---11--12--14--17--16--14--12--12--14--17-----------|
A|--7---9---7----9--10--12--15--14--12--10--10--12--15-----------|
E|---------------------------------------------------------------|

chorus X 2

part four X 2
e|----------------|------------------------------------------------------------------------|
B|-first time only|------------------------------------------------------------------------|
G|----------------|-----------------------------------------------------------------4h5p4--|
D|--4---4---4---4-|--4---4-----------------------------------------5p4h5--7p6h7------------|
A|--2---2---2---2-|--2---2---7---7---5---5---4---5----2---2--------------------------------|
E|----------------|----------5---5---3---3---2---3----0---0--------------------------------|
        pm      pm       pm     pm       pm pm pm       pm

part five X 2
guitar one
e|------------------------------------------------------------------|
B|------------------------------------------------------------------|
G|------------------------------------------------------------------|
D|--4--/6--/7--9--12--11--12--14--16--19----------------------------|
A|--2--/4--/5--7--10---9--10--12--14--17----------------------------|
E|------------------------------------------------------------------|

guitar two				V---both guitars
e|------------------------------------------------------------------|
B|------------------------------------------------------------------|
G|------------------------------------------------------s-----------|
D|--4--------------------4------------------------------t-----------|
A|--2--7--5--4--5--2--2--7--5--4--5--2--5------------9--o-----------|
E|-----5--3--2--3--0-----5--3--2--3--0--3------------7--p-----------|

part four X 7
both guitars 	last time
e|--------------|-----------------------------------------------------------|
B|--------------|-----------------------------------------------------------|
G|--------------|-----------------------------------------------------------|
D|-----10--9--7-|-----10------9-----7---------------------------------------|
A|--9---8--7--5-|--9---8---9--7--9--5---------------------------------------|
E|--7-----------|--7-------7-----7------------------------------------------|
		       pm    pm
part four minus last variation X 8

part four variation X4
e|----------------|---------------------------------------------------------|
B|----------------|--last time-----------------------------12---------------|
G|----------------|---------------------------------------------11----------|
D|------10--9-----|------10------------------------------------------12--9--|
A|--9---8---7--9--|--9---8--9-----9-----------------------------------------|
E|--7----------7--|--7------7-----7-----------------------------------------|


Important: The song above is NOT stored on the Chordie server. The original song is hosted at www.xguitar.com. Chordie works as a search engine and provides on-the-fly formatting. Chordie does not index songs against artists/composers will. To remove this song please click here.

This song is displayed as text-only. Transposing and tuning is only available for chordpro-songs.

Login - add to songbook

Rating click stars to rate

Layout
Accuracy

SHARE PAGE  




You need to log in to post comments