Chordie logo


A Cruel Taste of Winter    My Dying Bride



Band:  My Dying Bride
Album: The Dreadfull Hours
Song:  A cruel taste of winter


Transcribed By: Martin Bishop
Email:    lamentation_@hotmail.com


Tune your guitar 1.5 steps down.
Listen to the song for repeats.

b - bend
* - palm mute
/ - slide
h - hammer on


|--------------------------------------|
|--------------------------------------|
|--------------------------------------|
|-/9-5-4-4-----------------------------|
|-/7-3-3-2-----------------------------|
|--------------------------------------|

|--------------------------------------|
|--------------------------------------|
|--------------------------------------|
|--------------------------------------|
|-2-3h5-3h5-3-3h5-2h3-2-2h3-0h2-2--2---|
|-0-------------------------------0----|




|---------------------------------------|
|---------------------------------------|
|---------------------------------------|
|-------------9-------7-----------------|
|-/10-7-7-7-9---9b-9----5-5-------------|  gtr1
|---------------------------------------|



|---------------------------------------|
|---------------------------------------|
|---------------------------------------|
|---------------------------------------|
|-5/7-7/9-9h10-10h9-9h10-10-7-----------|  gtr 1
|---------------------------------------|

|---------------------------------------|
|---------------------------------------|
|---------------------------------------|
|---------------------------------------|
|-10-9-5-4------------------------------| gtr 2
|-8--7-3-2------------------------------|

then both guitars play:
|----------------------------------------|
|----------------------------------------|
|----------------------------------------|
|----------------------------------------|
|-10-9-5-4-------------------------------|
|-8--7-3-2-------------------------------|

|----------------------------------------------------|
|----------------------------------------------------|
|----------------------------------------------------|
|----------------------------------------------------|
|--5-2-2-1-2-1-2-5-2-2-1-2-1-2-3-2-2--1-2-1-2-5-2----|
|--3-0-0---------3-0-0-----------0-0----------3-0----|
  * * * * * * * * * * * * * * * * *  * * * *
|----------------------------------------------------|
|----------------------------------------------------|
|----------------------------------------------------|
|----------------------------------------------------|
|--5-2-2-1h2-1h2-5-2-2-1h2-1h2---3-2-2--1h2-1h2-5-2--|
|--3-0-0---------3-0-0-------------0-0----------3-0--|


Thats it.Listen to the song for repeats and rythm.


Important: The song above is NOT stored on the Chordie server. The original song is hosted at www.xguitar.com. Chordie works as a search engine and provides on-the-fly formatting. Chordie does not index songs against artists/composers will. To remove this song please click here.

This song is displayed as text-only. Transposing and tuning is only available for chordpro-songs.

Login - add to songbook

Rating click stars to rate

Layout
Accuracy

SHARE PAGE  




You need to log in to post comments