Guitar Tabs, Chords and Lyrics


The Raven and the Rose    My Dying Bride



My Dying Bride - The Raven and the Rose
Tabbed By: Haunted
Email: chrisbarnesrules@msn.com

Tuning: 2 Steps Down (C F A# D# G C)

Album:The Dreadful Hours  Year:2001

-|------------------------------------|-------------------------------------|-
-|------------------------------------|-------------------------------------|-
-|------------------------------------|-------------------------------------|-
-|------------------------------------|-------------------------------------|-
-|14--14-14-14-14--14-14-14-14--14-14-\-13--13-13-13-13--13-13-13-13--13-13-/-
-|0---0--0--0--0---0--0--0--0---0--0--|-0---0--0--0--0---0--0--0--0---0--0--|-


-|------------------------------------|-------------------------------------|-
-|------------------------------------|-------------------------------------|-
-|------------------------------------|-------------------------------------|-
-|------------------------------------|-------------------------------------|-
-/15--15-15-15-15--15-15-15-15--15-15-\-14--14-14-14-14--14-14-14-14--14-14-|-
-|0---0--0--0--0---0--0--0--0---0--0--|-0---0--0--0--0---0--0--0--0---0--0--|-
  Main riff: Palm mute throughout                            Back to start

-|------------------------------------|-------------------------------------|-
-|------------------------------------|-------------------------------------|-
-|------------------------------------|-------------------------------------|-
-|------------------------------------|-------------------------------------|-
-|------------------------------------|-------------------------------------|-
-|0---0-0-0---0-0--6-7-6-3-6-3-2-3----|-0---0-0-0---0-0--6-7-6-3-6-3-2-3----|-
  Verse Riff:                                                       Repeat

-|------------------------------------|-------------------------------------|-
-|------------------------------------|-------------------------------------|-
-|------------------------------------|-------------------------------------|-
-|------------------------------------|-------------------------------------|-
-|2-2-2-2-2-2-2-2-2---1h2p1---1-------|-2-2-2-2-2-2-2-2-2---1h2p1---1-------|-
-|0-0-0-0-0-0-0-0-0---------3---3p2h3-|-0-0-0-0-0-0-0-0-0---------3---3p2h3-|-
  Chorus Riff: ("He Watches her...")                                Repeat

-|------------------------------------|-------------------------------------|-
-|------------------------------------|-------------------------------------|-
-|------------------------------------|----------------5-------------4------|-
-|2--------------4-------------5------|--5-------------5-------------4------|-
-|2--------------4-------------5------|--5-------------3-------------2------|-
-|0--------------2-------------3------|--3----------------------------------|-
  Fast Break riff: ("sick with suffering....")

-|-------------------------------------------------------|--------------------
-|-------------------------------------------------------|--------------------
-|9-------------9-------------9-------------9------------|-8-------------8----
-|9-9-9-9-9-9-9-9-9-9-9-9-9-9-9-9-9-9-9-9-9-9-9-9-9-9-9-9|-8-8-8-8-8-8-8-8----
-|7-7-7-7-7-7-7-7-7-7-7-7-7-7-7-7-7-7-7-7-7-7-7-7-7-7-7-7|-6-6-6-6-6-6-6-6----
-|-------------------------------------------------------|--------------------
    PM---------)  PM---------)  PM---------)  PM---------)   PM---------)

----------------------------------------|----------------------------------|--
----------------------------------------|----------------------------------|--
-------------8-------------8------------|-5-\-4--4-------------------------|--
-8-8-8-8-8-8-8-8-8-8-8-8-8-8-8-8-8-8-8-8|-5-\-4--4-4-4-4-4-4-4-4-4-4-4-4-4-|--
-6-6-6-6-6-6-6-6-6-6-6-6-6-6-6-6-6-6-6-6|-3-\-2--2-2-2-2-2-2-2-2-2-2-2-2-2-|--
----------------------------------------|----------------------------------|--
 PM- -------)  PM---------)  PM---------)          PM---------------------

-|--------------------------------------|-------------------------------------
-|--------------------------------------|-------------------------------------
-|--------------------------------------|-------------------------------------
-|-4-/-5------5-------------------------|-------------------------------------
-|-4-/-5------5-5-5-5-5-5-5-5-5-5-5-5-5-|-------------------------------------
-|-2-/-3------3-3-3-3-3-3-3-3-3-3-3-3-3-|-------------------------------------
  Outro:        PM---------------------)

-|-----------------------------|--------------|-----------------------------|-
-|-----------------------------|--------------|-----------------------------|-
-|-----------------------------|--------------|-----------------------------|-
-|5-/-9--9-9-\-7--7-7-/-9--9-9-\-5-5-----9--7-|-5-/-9--9-9-\-7--7-7-/-9--9-9\-
-|-----------------------------|--------------|-----------------------------|-
-|-----------------------------|--------------|-----------------------------|-


-|-------------------------------|--------------------------------------------
-|-------------------------------|--------------------------------------------
-|-------------------------------|--------------------------------------------
-|5--5-h-7-p-5-\-4--4-h-5-p-4-\-2|--------------------------------------------
-|-------------------------------|--------------------------------------------


Important: The song above is NOT stored on the Chordie server. The original song is hosted at www.xguitar.com. Chordie works as a search engine and provides on-the-fly formatting. Chordie does not index songs against artists'/composers' will. To remove this song please click here.

This song is displayed as text-only. Transposing and tuning is only available for chordpro-songs.

Login - add to songbook

Rating click stars to rate

Layout
Accuracy

SHARE PAGE  




You need to log in to post comments