Guitar Tabs, Chords and Lyrics


Grace Unhearing    My Dying Bride



Grace Unhearing
Tune to C#, then drop the lowest string another step, so that you can get that
low C5 chord.

Timings probably off, but I tried to seperate some parts into measures.  Just
listen to the song and you'll figure it out.  The only riff I'm not certain
about is "Riff3 - Guitar 2".  When I play along w/ the cd, I play the other
part, and I just now took the time to do the second guitar part to it.  Enjoy!

Riff1
|------------------|-----------------|------------------|--------------------|
|------------------|-----------------|------------------|--------------------|
|------------------|-----------------|------------------|--------------------|
|------------------|-----------------|------------------|--------------------|
|--2--2--2-2-------|-1--1--1-1-------|--2--2--2-2-------|-1--1--1-1----------|
|--2--2--2-2--5--4-|-1--1--1-1--5--4-|--2--2--2-2--5--4-|-1--1--1-1--5--4----|
              Falling...        Drowning...        Deeper...    and Forever..

|------------------|-----------------|------------------|--------------------|
|------------------|-----------------|------------------|--------------------|
|------------------|-----------------|------------------|--------------------|
|------------------|-----------------|------------------|--------------------|
|--2--2--2-2-------|-1--1--1-1-------|--2--2--2-2-------|-1--1--1-1----------|
|--2--2--2-2--5--4-|-1--1--1-1--5--4-|--2--2--2-2--5--4-|-1--1--1-1--5--4----|
              Choking...        Sinking...         Deeper... into this Ocean..



Riff2 - Guitar2
   . . .     .                . .  .    . . .     .               . .  .
|------------------------------------|---------------------------------------|
|------------------------------------|---------------------------------------|
|------------------------------------|---------------------------------------|
|---------7-----7-9h10p9-7ah---------|---------7-----7-9h10p9-7ah------------|
|--7-9-10----10---------------9-10-9-|--7-9-10----10--------------9-10-9-----|
|------------------------------------|---------------------------------------|

Riff2 - Guitar2
|----------------------------------------------------------------------------|
|----------------------------------------------------------------------------|
|----------------------------------------------------------------------------|
|----------------------------------------------------------------------------|
|--2--2---------1--1--------------------2--2--------1--1---------------------|
|--2--2---------1--1--------------------2--2--------1--1---------------------|


Riff1 Fill
|----------------------|
|----------------------|
|----------------------|
|----------------------|
|--2--2--2-2-----------|
|--2--2--2-2--5--4--5--|



Riff3 - Guitar 1              trill
|---------------------------------------------------------------|
|---------------------------------------------------------------|
|-------------------------10--9(10)---7-9-10-9-----7------------|
|--7----9-7-9-10---9-7--9-----------------------10---10--9h10p9-|
|---------------------------------------------------------------|
|---------------------------------------------------------------|

Riff3 - Guitar 2
|---------------------------------------------------------------|
|---------------------------------------------------------------|
|---------------------------------------------------------------|
|---------------------------------------------------------------|
|-------8-7-5-7----3-5--3-----2-------8-7-5-7---3-5--3-----2----|
|--7------------------------------------------------------------|

Bass By itself for measure or two.. then

Riff4A
|--------------------|-------------------|---------------------|
|--------------------|-------------------|---------------------|
|--------------------|-------------------|---------------------|
|----5~-----5~-----5-|---5~-----5~-----5-|---5~------5~------5-|
|--7------7------7---|-6------6------6---|-7-------7-------7---|
|--------------------|-------------------|---------------------|

|--------------------|
|--------------------|
|--------------------|
|----5~-----5~-----5-|
|--6------6------6---|
|--------------------|

Riff4B (Variation of 4A) - Guitar 1
  .      .   . . .   .     .   . . . etc
|------------------|-----------------|-----------------|---------------------|
|------------------|-----------------|-----------------|---------------------|
|----6-5---5-------|---6-5---5-------|---6-5---5-------|---6-5---5-----------|
|--7-----7---7-6-7-|-6-----6---7-6-7-|-7-----7---7-6-7-|-6-----6---7-6-7-----|
|------------------|-----------------|-----------------|---------------------|
|------------------|-----------------|-----------------|---------------------|

Riff4B - Guitar 2
|-12-----------------11--------------|
|--------------------------12--11----|
|------------------------------------|
|------------------------------------|
|------------------------------------|
|------------------------------------|



         Riff5
|-------|--------------------------------------------------------------------|
|-------|--------------------------------------------------------------------|
|-------|--------------------------------------------------------------------|
|-------|--------------------------9--8-9-9-------------------------9--8-9-10|
|--2-2--|--2-2--5-4-4--2--2-2--5-4-7--6-7-7-2-2--5-4-5--2--2-2--5-4-7--6-7-8-|
|--2-2--|--2-2--5-4-5--2--2-2--5-4----------2-2--5-4-5--2--2-2--5-4----------|

Lead(??) over Riff 5
|----------------------------------------------------------------|
|----------------------------------------------------------------|
|----------------------7---------------------------------7----7--|
|----10-7-9-10-9~--7-9----10-9-----10-7-9-10-9~--7910-910--10----|
|-7-----------------------------7--------------------------------|
|----------------------------------------------------------------|

|---------------------------10------------------------------------------|
|----13-10-12-13-12~--10-12-----13-12-----13-10-12-13-12~--10-----------|
|-9------------------------------------9----------------------12-11-11--|
|-----------------------------------------------------------------------|
|-----------------------------------------------------------------------|
|-----------------------------------------------------------------------|

|--------------------------|
|--------------------------|
|--12--10ah~~--12--10ah~~--|
|--------------------------|
|--------------------------|
|--------------------------|


Song Order

Riff1           - x2
Riff2           - x2
Riff1           - x2
Riff1 Fill      - x1
Riff3           - x2
Bass by itself
Riff4A          - x2
Riff4B          - x2
Riff4A          - x2
Riff4B          - x2
Riff2           - x1
Riff5(w/Lead)   - x?   (so I'm too lazy to count =) )

uhmm .. figure the rest of the order out. I typed all the riffs, and that's


Important: The song above is NOT stored on the Chordie server. The original song is hosted at www.xguitar.com. Chordie works as a search engine and provides on-the-fly formatting. Chordie does not index songs against artists'/composers' will. To remove this song please click here.

This song is displayed as text-only. Transposing and tuning is only available for chordpro-songs.

Login - add to songbook

Rating click stars to rate

Layout
Accuracy

SHARE PAGE  




You need to log in to post comments