Guitar Tabs, Chords and Lyrics


Here in the Throat    My Dying Bride



My Dying Bride
Here in the Troat


intro:
riff A
e|-------------------------------------------------------------|
B|-------------------------------------------------------------|
G|-------------------------------------------------------------|
D|-------------------------------------------------------------|
A|-5---4---4-4-4-4-4-4-----5-4-----4/5-4---4-4-4-4-4-4---------|
E|-3-0-2---2-2-2-2-2-2-----3-2-0---2/3\\2---2-2-2-2-2-2---------|
           . . . . . .                     . . . . . .    (1x)
Riff B
e|-------------------------------------------------------------|
B|-------------------------------------------------------------|
G|-------------------------------------------------------------|
D|-------------------------------------------------------------|
A|-7-5-----4/5\\4---4-4-4-4-4-4----5-4-----4/5\\4---4-4-4-4-4-4--|
E|-5-3-0---2/3\\2---2-2-2-2-2-2----3-2-0---2/3\\2---2-2-2-2-2-2--|
                   . . . . . .                    . . . . . . (3x)

Riff C
e|-------------------------------------------------------------|
B|-------------------------------------------------------------|
G|-------------------------------------------------------------|
D|-------------------------------------------------------------|
A|-7-5-----4/5\\4-----------------------------------------------|
E|-5-3-0---2/3\\2-----------------------------------------------|

Riff D
e|-------------------------------------------------------------|
B|-------------------------------------------------------------|
G|-------------------------------------------------------------|
D|----------------------------------2--------------------------|
A|-4/7---7\\6---6/7---6-7---4-----3--2---5---4/5\\4--------------|
E|-2/5---5\\4---4/5---4-5---2-----1--0---3---2/3\\2--------------|

e|-------------------------------------------------------------|
B|-------------------------------------------------------------|
G|-------------------------------------------------------------|
D|----------------------------------2--------------------------|
A|-4/7---7\\6---6/7---6-7---4-----3--2---5---4/5\\4--------------|
E|-2/5---5\\4---4/5---4-5---2-----1--0---3---2/3\\2--------------|

e|-------------------------------------------------------------|
B|-------------------------------------------------------------|
G|-------------------------------------------------------------|
D|----------------------------------2--------------------------|
A|-4/7---7\\6---6/7---6-7---4-----3--2---5---4/5\\4---4-4-4-4-4-4|
E|-2/5---5\\4---4/5---4-5---2-----1--0---3---2/3\\2---2-2-2-2-2-2|
                                                    . . . . . .

Riff B
e|-------------------------------------------------------------|
B|-------------------------------------------------------------|
G|-------------------------------------------------------------|
D|-------------------------------------------------------------|
A|-7-5-----4/5\\4---4-4-4-4-4-4----5-4-----4/5\\4---4-4-4-4-4-4--|
E|-5-3-0---2/3\\2---2-2-2-2-2-2----3-2-0---2/3\\2---2-2-2-2-2-2--|
                   . . . . . .                    . . . . . . (4x)

Riff D
e|-------------------------------------------------------------|
B|-------------------------------------------------------------|
G|-------------------------------------------------------------|
D|----------------------------------2--------------------------|
A|-4/7---7\\6---6/7---6-7---4-----3--2---5---4/5\\4--------------|
E|-2/5---5\\4---4/5---4-5---2-----1--0---3---2/3\\2--------------|
                                                             (4x)

Riff E
e|-------------------------------------------------------------|
B|-------------------------------------------------------------|
G|-------------------------------------------------------------|
D|-------------------------------------------------------------|
A|-------------------------------------------------------------|
E|-7-7-7-7-7-7-7-7--8-8-8--10-10-10--11-11-11--10--------------|
   . . . . . . . .  . . .  .   .  .   .  .  .   .            (16x)

Riff F
e|-------------------------------------------------------------|
B|-------------------------------------------------------------|
G|-------------------------------------------------------------|
D|-------------------------------------------------------------|
A|-9-9-9-9-9-9-9-9---10-10-10-10---12-13-12--------------------|
E|-7-7-7-7-7-7-7-7----8--8--8--8---10-11-10--------------------|
                                                             (4x)

Riff G
e|-------------------------------------------------------------|
B|-------------------------------------------------------------|
G|-------------------------------------------------------------|
D|-------------------------------------------------------------|
A|-9---8---5---3-5---------------------------------------------|
E|-7---6---3---1-3---------------------------------------------|
                                                             (4x)
Riff F
e|-------------------------------------------------------------|
B|-------------------------------------------------------------|
G|-------------------------------------------------------------|
D|-------------------------------------------------------------|
A|-9-9-9-9-9-9-9-9---10-10-10-10---12-13-12--------------------|
E|-7-7-7-7-7-7-7-7----8--8--8--8---10-11-10--------------------|
                                                             (4x)

Riff G
e|-------------------------------------------------------------|
B|-------------------------------------------------------------|
G|-------------------------------------------------------------|
D|-------------------------------------------------------------|
A|-9---8---5---3-5---------------------------------------------|
E|-7---6---3---1-3---------------------------------------------|
                                                             (4x)

Riff H
e|-------------------------------------------------------------|
B|-------------------------------------------------------------|
G|-------------------------------------------------------------|
D|-------------------------------------------------------------|
A|-7-------------7/8---7\\5---/8----7-------------7/8---7\\5--/8-|
E|-5-5-5-5-5-5-5-5/6---5\\3---/6----5-5-5-5-5-5-5-5/6---5\\3--/6-|
     . . . . . .                     . . . . . .
e|-------------------------------------------------------------|
B|-------------------------------------------------------------|
G|-------------------------------------------------------------|
D|-------------------------------------------------------------|
A|-4-------------4/5---5\\3---/6----4-------------4/5---5\\3--/6-|
E|-2-2-2-2-2-2-2-2/3---3\\1---/4----2-2-2-2-2-2-2-2/3---3\\1--/4-|
     . . . . . .                     . . . . . .

Riff B
e|-------------------------------------------------------------|
B|-------------------------------------------------------------|
G|-------------------------------------------------------------|
D|-------------------------------------------------------------|
A|-7-5-----4/5\\4---4-4-4-4-4-4----5-4-----4/5\\4---4-4-4-4-4-4--|
E|-5-3-0---2/3\\2---2-2-2-2-2-2----3-2-0---2/3\\2---2-2-2-2-2-2--|
                   . . . . . .                    . . . . . . (4x)

Riff D
e|-------------------------------------------------------------|
B|-------------------------------------------------------------|
G|-------------------------------------------------------------|
D|----------------------------------2--------------------------|
A|-4/7---7\\6---6/7---6-7---4-----3--2---5---4/5\\4--------------|
E|-2/5---5\\4---4/5---4-5---2-----1--0---3---2/3\\2--------------|


Important: The song above is NOT stored on the Chordie server. The original song is hosted at www.xguitar.com. Chordie works as a search engine and provides on-the-fly formatting. Chordie does not index songs against artists'/composers' will. To remove this song please click here.

This song is displayed as text-only. Transposing and tuning is only available for chordpro-songs.

Login - add to songbook

Rating click stars to rate

Layout
Accuracy

SHARE PAGE  




You need to log in to post comments