Chordie logo


My Wine in Silence    My Dying Bride



My Dying Bride - My Wine in Silence
Tabbed By: kshaqazoo
Submitted by: Himmelfarht
Email: this_is_the_prophecy@hotmail.com

Tuning: 1 & 1/2 Steps Down (C# F# H E G# C#)

intro

guitar 1

clear, chorus, reverb and maybe some more effects

volume   0 - 100%

C#|-12--------------------12---12---12---12------|
G#|----------------------------------------------|
E |-12-----------------12---12---12---12---------|
H |----------------------------------------------|
F#|----------------------------------------------|
C#|----------------------------------------------|

guitar 2

clear, reverb

C#|----------------------------------------------|
G#|----------------------------------------------|
E |----------------------------------------------|
H |-------------------------5----5----5----------|
F#|-------------------------3----3----2----------|
C#|----------------------------------------------|



riff 1

guitar 1

clear, chorus, reverb and maybe some more effects

C#|----12---12---12---12---10---10---10---10-----|
G#|----------------------------------------------|
E |-12---12---12---12---11---11---11---11--------|
H |----------------------------------------------|
F#|----------------------------------------------|
C#|----------------------------------------------|


guitar 2

clear, reverb

C#|----------------------------------------------|
G#|----------------------------------------------|
E |----------------------------------------------|
H |--2--------------------------2----------------|
F#|--0------------------------0--------0---------|
C#|-------------------------3------------3-------|



guitar 1

C#|----10---10---10---10---12---12---12---12-----|
G#|----------------------------------------------|
E |-11---11---11---11---12---12---12---12--------|
H |----------------------------------------------|
F#|----------------------------------------------|
C#|----------------------------------------------|


C#|----------------------------------------------|
G#|----------------------------------------------|
E |----------------------------------------------|
H |---------------------------5----5----5--------|
F#|-2-------------------------3----3----2--------|
C#|-0--------------------------------------------|



riff 1 end

guitar 1

clear, chorus, reverb and maybe some more effects

C#|----12---12---12---12---10---10---10---10-----|
G#|----------------------------------------------|
E |-12---12---12---12---11---11---11---11--------|
H |----------------------------------------------|
F#|----------------------------------------------|
C#|----------------------------------------------|


guitar 2

clear, reverb

C#|----------------------------------------------|
G#|----------------------------------------------|
E |----------------------------------------------|
H |--2--------------------------2----------------|
F#|--0------------------------0--------0---------|
C#|-------------------------3------------3-------|



guitar 1

C#|----10---10---10---10---12---12---12---12-----|
G#|----------------------------------------------|
E |-11---11---11---11---12---12---12---12--------|
H |----------------------------------------------|
F#|----------------------------------------------|
C#|----------------------------------------------|

guitar 2

C#|----------------------------------------------|
G#|----------------------------------------------|
E |----------------------------------------------|
H |----------------------------------------------|
F#|-2--------------------------------------------|
C#|-0--------------------------------------------|



riff 2

guitar 1

clear, chorus, reverb and maybe some more effects

C#|----12---12---12---12---10---10---10---10----|
G#|---------------------------------------------|
E |-12---12---12---12---11---11---11---11-------|
H |---------------------------------------------|
F#|---------------------------------------------|
C#|---------------------------------------------|

guitar 2

clear, reverb

C#|---------------------------------------------|
G#|---------------------------------------------|
E |---------------------------------------------|
H |---7--7--7--7--7--7--5---/7------------------|
F#|---------------------------------------------|
C#|---------------------------------------------|


guitar 1

C#|----10---10---10---10---12---12---12---12----|
G#|---------------------------------------------|
E |-11---11---11---11---12---12---12---12-------|
H |---------------------------------------------|
F#|---------------------------------------------|
C#|---------------------------------------------|

guitar 2

C#|---------------------------------------------|
G#|---------------------------------------------|
E |---------------------------------------------|
H |---------------------------------------------|
F#|---------------------------------------------|
C#|---------------------------------------------|


riff 2 end 1

guitar 1

clear, chorus, reverb and maybe some more effects

C#|----12---12---12---12---10---10---10---10----|
G#|---------------------------------------------|
E |-12---12---12---12---11---11---11---11-------|
H |---------------------------------------------|
F#|---------------------------------------------|
C#|---------------------------------------------|

guitar 2

clear, reverb

C#|---------------------------------------------|
G#|---------------------------------------------|
E |---------------------------------------------|
H |---7--7--7--7--7--7--5---/7------------------|
F#|---------------------------------------------|
C#|---------------------------------------------|


guitar 1

C#|----10---10---10---10---12---12---12---12----|
G#|---------------------------------------------|
E |-11---11---11---11---12---12---12---12-------|
H |---------------------------------------------|
F#|---------------------------------------------|
C#|---------------------------------------------|

guitar 2

C#|---------------------------------------------|
G#|---------------------------------------------|
E |---------------------------------------------|
H |--------------------------5----5----5--------|
F#|--------------------------3----3----2--------|
C#|---------------------------------------------|



riff 2 end 2

guitar 1

clear, chorus, reverb and maybe some more effects

C#|----12---12---12---12------------------------|
G#|---------------------------------------------|
E |-12---12---12---12---------------------------|
H |---------------------------------------------|
F#|---------------------------------------------|
C#|---------------------------------------------|

guitar 2

clear, reverb

C#|---------------------------------------------|
G#|---------------------------------------------|
E |---------------------------------------------|
H |---7--7--7--7--7--7--5-----------------------|
F#|---------------------------------------------|
C#|------------------------0--0---0--2--3-------|


riff 3

guitar 2 only

clear, reverb,

C#|------------------------------------------------|
G#|------------------------------------------------|
E |------------------------------------------------|
H |------------------------------------------------|
F#|---/7--6----6--6--3----3--3--2----2-----2----2--|
C#|-3-----------------------------------3----------|



C#|------------------------------------------------|
G#|------------------------------------------------|
E |------------------------------------------------|
H |------------------------------------------------|
F#|-2--1----1-----1--------------------------------|
C#|-----------2-------2--0--0---0--2--3------------|



riff 3 end


guitar 2 + guitar 1 at half of second bar

clear, reverb,

C#|------------------------------------------------|
G#|------------------------------------------------|
E |------------------------------------------------|
H |------------------------------------------------|
F#|---/7--6----6--6--3----3--3--2----2-----2----2--|
C#|-3-----------------------------------3----------|


                               both guitars DISTORSION

                               |
                               |
C#|----------------------------------------------|
G#|----------------------------------------------|
E |----------------------------------------------|
H |----------------------------5----5----5-------|
F#|-2--1----1---1--------------3----3----2-------|
C#|-----------2-----2--0-------------------------|


riff 4 both giutars

C#|----------------------------------------------|
G#|----------------------------------------------|
E |----------------------------------------------|
H |--2----------------------------2--------------|
F#|--0--------------------------0------0---------|
C#|---------------------------3----------3-------|


C#|----------------------------------------------|
G#|----------------------------------------------|
E |----------------------------------------------|
H |---------------------------5----5----5--------|
F#|-2-------------------------3----3----2--------|
C#|-0--------------------------------------------|



riff 4 end 1 both giutars

C#|----------------------------------------------|
G#|----------------------------------------------|
E |----------------------------------------------|
H |--2----------------------------2--------------|
F#|--0--------------------------0------0---------|
C#|---------------------------3----------3-------|


C#|-----------------------|
G#|-----------------------|
E |-----------------------|
H |-----------------------|
F#|-----------------------|
C#|-0--0----0--2--3-------|

riff 5

both guitars distorsion

C#|------------------------------------------------|
G#|------------------------------------------------|
E |------------------------------------------------|
H |------------------------------------------------|
F#|---/7--6----6--6--3----3--3--2----2-----2----2--|
C#|-3-----------------------------------3----------|



C#|------------------------------------------------|
G#|------------------------------------------------|
E |------------------------------------------------|
H |------------------------------------------------|
F#|-2--1----1-----1--------------------------------|
C#|-----------2-------2--0--0---0--2--3------------|


riff 5 end


C#|------------------------------------------------|
G#|------------------------------------------------|
E |------------------------------------------------|
H |------------------------------------------------|
F#|---/7--6----6--6--3----3--3--2----2-----2----2--|
C#|-3-----------------------------------3----------|



C#|----------------------------------------------|
G#|----------------------------------------------|
E |----------------------------------------------|
H |--------------------------5----5----5---------|
F#|-2--1----1---1------------3----3----2---------|
C#|-----------2-----2--0-------------------------|



last accord in song

end

both guitars distorsion


C#|----------------------------------------------|
G#|----------------------------------------------|
E |----------------------------------------------|
H |--2----------------------------2--------------|
F#|--0--------------------------0------0---------|
C#|---------------------------3----------3-------|


C#|----------------------------------------------|
G#|----------------------------------------------|
E |----------------------------------------------|
H |----------------------------------------------|
F#|-2--------------------------------------------|
C#|-0--------------------------------------------|




   intro         -  1x
   riff 1        -  3x
   riff 1 end    -  1x
   riff 2        -  1x
   riff 2 end 1  -  1x
   riff 1        -  3x
   riff 1 end    -  1x
   riff 2        -  3x
   riff 2 end 2  -  1x
   riff 3        -  3x
   riff 3 end    -  1x
   riff 4        -  3x
   riff 4 end    -  1x
   riff 5        -  3x
   riff 5 end    -  1x
   riff 4        -  3x
   END           -  1x


     a little

     TAB DISCRIPTION



Important: The song above is NOT stored on the Chordie server. The original song is hosted at www.xguitar.com. Chordie works as a search engine and provides on-the-fly formatting. Chordie does not index songs against artists/composers will. To remove this song please click here.

This song is displayed as text-only. Transposing and tuning is only available for chordpro-songs.

Login - add to songbook

Rating click stars to rate

Layout
Accuracy

SHARE PAGE  




You need to log in to post comments