Guitar Tabs, Chords and Lyrics


The Prize of Beauty    My Dying Bride



Song  : The Prize of Beauty
Band  : My Dying Bride
Album : Songs of Darkness, Words of Light

Guitar 1 : C# F# B E G# C#
Guitar 2 : C# F# B E G# C#
Bass     : C# F# B E

  Guitar 1                                 Both
||--------------------|-------------------|-------------------|--------------------||
||--------------------|-------------------|-------------------|--------------------||
||.-------------------|-------------------|-------------------|-------------------.||
||.--------2----------|--------5---0------|--------..---------|-------------------.||
||-----2-3-----3-2-3--|----2-3-------3----|--2-----222-2-6----|-(6)------6-5-3-----||
||---0----------------|--0----------------|--0-----000-0-4----|-(4)------4-3-1-----||
||   1 + 2 + 3 + 4 +  |  1 + 2 + 3 + 4 +  |  1 + 2 + 3 + 4 +  |  1 + 2 + 3 + 4 +   ||

  Guitar 1                                 Both
||--------------------|-------------------|-------------------|--------------------||
||--------------------|-------------------|-------------------|--------------------||
||.-------------------|-------------------|-------------------|-------------------.||
||.--------2----------|--------5---0------|--.-------.--------|--.-------.--------.||
||-----2-3-----3-2-3--|----2-3-------3----|--2-2---2-6-6---6--|--5-5---5-3-3---3---||
||---0----------------|--0----------------|--0-0---0-4-4---4--|--3-3---3-1-1---1---||
||   1 + 2 + 3 + 4 +  |  1 + 2 + 3 + 4 +  |  1 + 2 + 3 + 4 +  |  1 + 2 + 3 + 4 +   ||

  Both
||--------------------|--------------------||
||--------------------|--------------------||
||.-------------------|-------------------.||
||.--.-------.--------|--.-------.--------.||
||---2-2---2-6-6---6--|--5-5---5-3-3---3---||
||---0-0---0-4-4---4--|--3-3---3-1-1---1---||
||   1 + 2 + 3 + 4 +  |  1 + 2 + 3 + 4 +   ||




Important: The song above is NOT stored on the Chordie server. The original song is hosted at www.xguitar.com. Chordie works as a search engine and provides on-the-fly formatting. Chordie does not index songs against artists'/composers' will. To remove this song please click here.

This song is displayed as text-only. Transposing and tuning is only available for chordpro-songs.

Login - add to songbook

Rating click stars to rate

Layout
Accuracy

SHARE PAGE  




You need to log in to post comments