Guitar Tabs, Chords and Lyrics


Alpha Ways    My Vitriol



X===============================PLEASE NOTE==============================X
X  This tab is all my own and represents my interpretation of the song.  X
X You may only use this tab for private study, scholarship, or research. X
X  Do not change, deface, mutilate, or in any other way alter this tab.  X
X   You must email me first if you want to use this tab on your site.    X
X========================================================================X
                               

 				My Vitriol- 

Tabbed by WWW.GEOCITIES.COM/MVTABS 
                                               4x                       
E----------------------------------------------||-----------------------
B----------------------------------------------||-----------------------
G---------8--------8-----------2-----------2--*||-----------------------
D---6--6-----6--6-----------4-----------4-----*||-----------------------
A---7--------7--------2--3--------2--3---------||-----------------------
E---0--------0---------------------------------||-----------------------
                                                                        

                                                                        
E-----------------------------------------------------------------------
B-----------------------------------------------------------------------
G-----------------------------------------------------------------------
D------------------------------------------------------------4----------
A---2--------2-----------2--------2--------3--------3-----------3-------
E---0--0--0-----0--0-----0--0--0-----0--0--0--0--0-----0--0--------0----
                                                                        

                    6x                                                  
E-------------------||--------------------------------------------------
B-------------------||--------------------------------------------------
G------------------*||--------------------------------------------------
D---2--------2-----*||--------------------------------------------------
A------3--------3---||--------------------------------------------------
E---------0---------||--------------------------------------------------
                                                                        



Important: The song above is NOT stored on the Chordie server. The original song is hosted at www.xguitar.com. Chordie works as a search engine and provides on-the-fly formatting. Chordie does not index songs against artists/composers will. To remove this song please click here.

This song is displayed as text-only. Transposing and tuning is only available for chordpro-songs.

Login - add to songbook

Rating click stars to rate

Layout
Accuracy

SHARE PAGE  




You need to log in to post comments