Chordie logo

Ode to the Red Queen      My Vitriol



Song: Ode To The Red Queen
Band: My Vitriol
Tuning: Standard
Tabbed By: $@NDER

e|----------------------------------|
B|----------------------------------|
G|-1-1-1-1-1-1-1-1/3-3-3-3-3-3-3----|
D|-2-2-2-2-2-2-2-2/4-4-4-4-4-4-4----|
A|-2-2-2-2-2-2-2-2/4-4-4-4-4-4-4----|
E|-0-0-0-0-0-0-0-0/2-2-2-2-2-2-2----|

e|----------------------------|
B|-16-16-16-16/15-------------|
G|----------------------------|
D|----------------------------|
A|----------------------------|
E|----------------------------|

verse(Scrape)
e|-0--2-------------------------|
B|-0--4-------------------------|
G|-1--4-------------------------|
D|-2--4-------------------------|
A|-2--2-------------------------|
E|-0--2-------------------------|
Chorus(not Sure About The First Part)
e|-0-0-0-0-0-0-0-0-0-0------------------|
B|-0-0-0-0-0-0-0-0-0-0------------------|
G|-1-1-1-1-1-1-1-1-1-1-8-8-8-8----------|
D|-2-2-2-2-2-2-2-2-2-2-8-8-8-8----------|
A|-2-2-2-2-2-2-2-2-2-2-6-6-6-6----------|
E|-0-0-0-0-0-0-0-0-0-0------------------|

e|-0-0-0-0-0-0-0-0-0-0------------------|
B|-0-0-0-0-0-0-0-0-0-0------------------|
G|-1-1-1-1-1-1-1-1-1-1-4-4-4-4----------|
D|-2-2-2-2-2-2-2-2-2-2-4-4-4-4----------|
A|-2-2-2-2-2-2-2-2-2-2-2-2-2-2----------|
E|-0-0-0-0-0-0-0-0-0-0------------------|
Solo
E|-----------------------------------------------------------|
B|-----------------------------------------------------------|
G|-----------------------------------------------------------|
D|---13-13-13-13---13-13-14-16-----13-13-13-13---13-13-14-16-|
A|-----------------------------------------------------------|
E|-----------------------------------------------------------|

E|-----------------------------------------------------------|
B|-----------------------------------------------------------|
G|---13------------------------------------------------------|
D|---11------------------------------------------------------|
A|---14-14-14-14---14-14-13-14-11-----10---------------------|
E|-----------------------------------------------------------|


Somewhere in the middle play this
e|----------------------------|
B|----------------------------|
G|----------------------------|
D|----------------------------|
A|----------------------------|


Important: The song above is NOT stored on the Chordie server. The original song is hosted at www.xguitar.com. Chordie works as a search engine and provides on-the-fly formatting. Chordie does not index songs against artists/composers will. To remove this song please click here.

This song is displayed as text-only. Transposing and tuning is only available for chordpro-songs.

Rating click stars to rate

Layout
Accuracy

SHARE PAGE  



You need to log in to post comments