Guitar Tabs, Chords and Lyrics


Another Lie   My Vitriol

[A]  [A]  Chorus
[F]  [C]  [F]  [C]  [Am]   [Bb]   [F]  [C]  [F]  [C]  [Am]   [Bb]   [A]  [A]  Verse
F Am Bb X4
Lead w/reverb
E---|-------------------------------------------------------------------
B---|---------------------2b3r2b3--------------------2b3r2b3/5----------
G---|--2--2b3r2--2--2b3r2---------2--2b3r2--2--2b3r2--------------------
D---|-------------------------------------------------------------------
A---|-------------------------------------------------------------------
E---|-------------------------------------------------------------------

Bridge
[A]  [A]  Chorus
[F]  [C]  [F]  [C]  [Am]   [Bb]   [F]  [C]  [F]  [C]  [Am]   [Bb]   [F]  [C]  [Am]   [Bb]   [F]  [C]  [Bb]   Lead w/reverb
E---|-------------------------------------------------------------------
B---|---10--10\5--10--10\5-------6---6----------------------------------
G---|-------------------------------------------------------------------
D---|-------------------------------------------------------------------
A---|-------------------------------------------------------------------
E---|-------------------------------------------------------------------

Chords:
  [F]    [Bb]     [Am]      [A]   [C]                                                                       
|-1--(1)---0-----5--0--|
|-1---3----1-----5--1--|
|-2---3----2-----6--0--|
|-3---3----2-----7--2--|
|-3---1----0-----0--3--|
|-1--------------------|


Important: The song above is NOT stored on the Chordie server. The original song is hosted at www.xguitar.com. Chordie works as a search engine and provides on-the-fly formatting. Chordie does not index songs against artists'/composers' will. To remove this song please click here.

Text color:
Chord color:
Chord grids: 
Font size:    
Page size: 

A Am Bb C F
variations - click chord images

Login - add to songbook

Transpose chords

Tuning

Rating click stars to rate

Layout
Accuracy

SHARE PAGE  




You need to log in to post comments